  0
SECTION
  2
HEADER
  9
$ACADVER
  1
AC1009
  9
$INSBASE
 10
0.0
 20
0.0
 30
0.0
  9
$EXTMAX
 10
34.3323
 20
27.8942
 30
50.0
  9
$EXTMIN
 10
-33.6278
 20
-20.4751
 30
0.0
  9
$LIMMAX
 10
12.0
 20
9.0
  9
$LIMMIN
 10
0.0
 20
0.0
  9
$ORTHOMODE
 70
0
  9
$REGENMODE
 70
1
  9
$FILLMODE
 70
1
  9
$QTEXTMODE
 70
0
  9
$MIRRTEXT
 70
1
  9
$DRAGMODE
 70
2
  9
$LTSCALE
 40
1.0
  9
$OSMODE
 70
0
  9
$ATTMODE
 70
1
  9
$TEXTSIZE
 40
0.2
  9
$TRACEWID
 40
0.05
  9
$TEXTSTYLE
  7
STANDARD
  9
$CLAYER
  8
0
  9
$CELTYPE
  6
CONTINUOUS
  9
$CECOLOR
 62
256
  9
$DIMSCALE
 40
1.0
  9
$DIMASZ
 40
0.18
  9
$DIMEXO
 40
0.0625
  9
$DIMDLI
 40
0.38
  9
$DIMRND
 40
0.0
  9
$DIMDLE
 40
0.0
  9
$DIMEXE
 40
0.18
  9
$DIMTP
 40
0.0
  9
$DIMTM
 40
0.0
  9
$DIMTXT
 40
0.18
  9
$DIMCEN
 40
0.09
  9
$DIMTSZ
 40
0.0
  9
$DIMTOL
 70
0
  9
$DIMLIM
 70
0
  9
$DIMTIH
 70
1
  9
$DIMTOH
 70
1
  9
$DIMSE1
 70
0
  9
$DIMSE2
 70
0
  9
$DIMTAD
 70
0
  9
$DIMZIN
 70
0
  9
$DIMBLK
  1

  9
$DIMASO
 70
1
  9
$DIMSHO
 70
1
  9
$DIMPOST
  1

  9
$DIMAPOST
  1

  9
$DIMALT
 70
0
  9
$DIMALTD
 70
2
  9
$DIMALTF
 40
25.4
  9
$DIMLFAC
 40
1.0
  9
$DIMTOFL
 70
0
  9
$DIMTVP
 40
0.0
  9
$DIMTIX
 70
0
  9
$DIMSOXD
 70
0
  9
$DIMSAH
 70
0
  9
$DIMBLK1
  1

  9
$DIMBLK2
  1

  9
$DIMSTYLE
  2
*UNNAMED
  9
$DIMCLRD
 70
0
  9
$DIMCLRE
 70
0
  9
$DIMCLRT
 70
0
  9
$DIMTFAC
 40
1.0
  9
$DIMGAP
 40
0.09
  9
$LUNITS
 70
2
  9
$LUPREC
 70
4
  9
$AXISMODE
 70
0
  9
$AXISUNIT
 10
0.0
 20
0.0
  9
$SKETCHINC
 40
0.1
  9
$FILLETRAD
 40
0.0
  9
$AUNITS
 70
0
  9
$AUPREC
 70
0
  9
$MENU
  1
acad
  9
$ELEVATION
 40
0.0
  9
$PELEVATION
 40
0.0
  9
$THICKNESS
 40
0.0
  9
$LIMCHECK
 70
0
  9
$BLIPMODE
 70
1
  9
$CHAMFERA
 40
0.0
  9
$CHAMFERB
 40
0.0
  9
$SKPOLY
 70
0
  9
$TDCREATE
 40
0.0
  9
$TDUPDATE
 40
0.0
  9
$TDINDWG
 40
0.0
  9
$TDUSRTIMER
 40
0.0
  9
$USRTIMER
 70
1
  9
$ANGBASE
 50
0.0
  9
$ANGDIR
 70
0
  9
$PDMODE
 70
0
  9
$PDSIZE
 40
0.0
  9
$PLINEWID
 40
0.0
  9
$COORDS
 70
0
  9
$SPLFRAME
 70
0
  9
$SPLINETYPE
 70
6
  9
$SPLINESEGS
 70
10
  9
$ATTDIA
 70
0
  9
$ATTREQ
 70
1
  9
$HANDLING
 70
1
  9
$HANDSEED
  5
1245
  9
$SURFTAB1
 70
6
  9
$SURFTAB2
 70
6
  9
$SURFTYPE
 70
6
  9
$SURFU
 70
10
  9
$SURFV
 70
10
  9
$UCSNAME
  2

  9
$UCSORG
 10
0.0
 20
0.0
 30
0.0
  9
$UCSXDIR
 10
1.0
 20
0.0
 30
0.0
  9
$UCSYDIR
 10
0.0
 20
1.0
 30
0.0
  9
$PUCSNAME
  2
 
  9
$PUCSORG
 10
0.0
 20
0.0
 30
0.0
  9
$PUCSXDIR
 10
1.0
 20
0.0
 30
0.0
  9
$PUCSYDIR
 10
0.0
 20
1.0
 30
0.0
  9
$USERI1
 70
0
  9
$USERI2
 70
0
  9
$USERI3
 70
0
  9
$USERI4
 70
0
  9
$USERI5
 70
0
  9
$USERR1
 40
0.0
  9
$USERR2
 40
0.0
  9
$USERR3
 40
0.0
  9
$USERR4
 40
0.0
  9
$USERR5
 40
0.0
  9
$WORLDVIEW
 70
1
  9
$SHADEDGE
 70
3
  9
$SHADEDIF
 70
70
  9
$TILEMODE
 70
1
  9
$MAXACTVP
 70
16
  9
$PLIMCHECK
 70
0
  9
$PEXTMIN
 10
-1.000000E+20
 20
-1.000000E+20
 30
-1.000000E+20
  9
$PEXTMAX
 10
-1.000000E+20
 20
-1.000000E+20
 30
-1.000000E+20
  9
$PLIMMIN
 10
0.0
 20
0.0
  9
$PLIMMAX
 10
12.0
 20
9.0
  9
$UNITMODE
 70
0
  9
$VISRETAIN
 70
0
  0
ENDSEC
  0
SECTION
  2
TABLES
  0
TABLE
  2
LTYPE
 70
7
  0
LTYPE
  2
CONTINUOUS
 70
64
  3
Solid line
 72
65
 73
0
 40
0.0
  0
LTYPE
  2
DOT
 70
64
  3
. . . . . . . . . . . . . . . . . . . . . . . . . . . . . . . . .
 72
65
 73
2
 40
0.25
 49
0.0
 49
-0.25
  0
LTYPE
  2
HIDDEN
 70
64
  3
__ __ __ __ __ __ __ __ __ __ __ __ __ __ __ __ __ __ __ __ __ 
 72
65
 73
2
 40
0.375
 49
0.25
 49
-0.125
  0
LTYPE
  2
DASHED
 70
64
  3
__ __ __ __ __ __ __ __ __ __ __ __ __ __ __ __ __ __ __ __ __
 72
65
 73
2
 40
0.75
 49
0.5
 49
-0.25
  0
LTYPE
  2
DASHDOT
 70
64
  3
__ . __ . __ . __ . __ . __ . __ . __ . __ . __ . __ . __ . _
 72
65
 73
4
 40
1.0
 49
0.5
 49
-0.25
 49
0.0
 49
-0.25
  0
LTYPE
  2
DIVIDE
 70
64
  3
____ . . ____ . . ____ . . ____ . . ____ . . ____ . . ____ . .
 72
65
 73
6
 40
1.25
 49
0.5
 49
-0.25
 49
0.0
 49
-0.25
 49
0.0
 49
-0.25
  0
LTYPE
  2
CENTER
 70
64
  3
____ _ ____ _ ____ _ ____ _ ____ _ ____ _ ____ _ ____ _ ____ _
 72
65
 73
4
 40
2.0
 49
1.25
 49
-0.25
 49
0.25
 49
-0.25
  0
ENDTAB
  0
TABLE
  2
APPID
 70
1
  0
APPID
  2
ACAD
 70
0
  0
ENDTAB
  0
TABLE
  2
DIMSTYLE
 70
0
  0
ENDTAB
  0
TABLE
  2
LAYER
 70
4
  0
LAYER
  2
0
 70
0
 62
7
  6
CONTINUOUS
  0
LAYER
  2
CONSTRUCTION_CLASS
 70
0
 62
7
  6
CONTINUOUS
  0
LAYER
  2
PATTERN_CLASS
 70
0
 62
7
  6
CONTINUOUS
  0
LAYER
  2
1
 70
0
 62
7
  6
CONTINUOUS
  0
ENDTAB
  0
TABLE
  2
STYLE
 70
2
  0
STYLE
  2
MONOTXT
 70
0
 40
0.2
 41
1.0
 50
0.0
 71
0
 42
0.2
  3
MONOTXT
  4

  0
STYLE
  2
ROMANS
 70
0
 40
0.2
 41
1.0
 50
0.0
 71
0
 42
0.2
  3
ROMANS
  4

  0
ENDTAB
  0
TABLE
  2
UCS
 70
0
  0
ENDTAB
  0
TABLE
  2
VIEW
 70
0
  0
ENDTAB
  0
TABLE
  2
VPORT
 70
1
  0
VPORT
  2
*ACTIVE
 70
0
 10
0.0
 20
0.0
 11
1.0
 21
1.0
 12
0.0
 22
0.0
 13
0.0
 23
0.0
 14
0.0
 24
0.0
 15
0.0
 25
0.0
 16
0.0
 26
0.0
 36
200.0
 17
-1.782121
 27
3.70955
 37
25.0
 40
49.5785
 41
1.483037
 42
50.0
 43
100.0
 44
-100.0
 50
0.0
 51
0.0
 71
22
 72
100
 73
1
 74
0
 75
0
 76
0
 77
0
 78
0
  0
ENDTAB
  0
ENDSEC
  0
SECTION
  2
BLOCKS
  0
BLOCK
  8
0
  5
ABE
 70
1
 10
0.0
 20
0.0
 30
0.0
  2
*M0
  3
*M0
  0
TEXT
  8
0
  5
AC0
  6
CONTINUOUS
 62
4
 10
-15.0006
 20
-19.3004
 30
0.0
  1
2002-01
 40
1.0
 41
1.0
  0
ENDBLK
  8
0
  5
AC1
  0
BLOCK
  8
1
  5
AC3
 70
1
 10
0.0
 20
0.0
 30
0.0
  2
*O1
  3
*O1
  0
TEXT
  8
1
  5
AC5
  6
CONTINUOUS
 62
1
 10
-7.9613
 20
8.5141
 30
0.0
  1
This information is free for personal use
 40
0.4665
 41
0.839014
 72
4
 11
0.0004
 21
8.7474
 31
0.0
  0
TEXT
  8
1
  5
AC7
  6
CONTINUOUS
 62
1
 10
-9.1316
 20
7.8141
 30
0.0
  1
(free of charge) but still with full copyrights
 40
0.4665
 41
0.839014
 72
4
 11
0.0
 21
8.0474
 31
0.0
  0
TEXT
  8
1
  5
AC9
  6
CONTINUOUS
 62
1
 10
-7.1092
 20
7.1145
 30
0.0
  1
by the author, Patrick Poirier, 2002.
 40
0.4665
 41
0.839014
 72
4
 11
-0.0001
 21
7.3478
 31
0.0
  0
TEXT
  8
1
  5
ACB
  6
CONTINUOUS
 62
1
 10
-0.1306
 20
6.4147
 30
0.0
  1
 
 40
0.4665
 41
0.839014
 72
4
 11
-0.0001
 21
6.648
 31
0.0
  0
TEXT
  8
1
  5
ACD
  6
CONTINUOUS
 62
1
 10
-6.5915
 20
5.7147
 30
0.0
  1
No to be sold or used commercially
 40
0.4665
 41
0.839014
 72
4
 11
0.0004
 21
5.948
 31
0.0
  0
TEXT
  8
1
  5
ACF
  6
CONTINUOUS
 62
1
 10
-6.9789
 20
5.0148
 30
0.0
  1
in any form except by permission of 
 40
0.4665
 41
0.839014
 72
4
 11
0.0003
 21
5.2481
 31
0.0
  0
TEXT
  8
1
  5
AD1
  6
CONTINUOUS
 62
1
 10
-2.0214
 20
4.3148
 30
0.0
  1
the author.
 40
0.4665
 41
0.839014
 72
4
 11
0.0001
 21
4.5481
 31
0.0
  0
TEXT
  8
1
  5
AD3
  6
CONTINUOUS
 62
1
 10
-0.1306
 20
3.6154
 30
0.0
  1
 
 40
0.4665
 41
0.839014
 72
4
 11
-0.0001
 21
3.8487
 31
0.0
  0
TEXT
  8
1
  5
AD5
  6
CONTINUOUS
 62
1
 10
-7.179
 20
2.9154
 30
0.0
  1
To be distributed in exactly the same
 40
0.4665
 41
0.839014
 72
4
 11
0.0
 21
3.1487
 31
0.0
  0
TEXT
  8
1
  5
AD7
  6
CONTINUOUS
 62
1
 10
-6.396
 20
2.2158
 30
0.0
  1
form presented here with this one
 40
0.4665
 41
0.839014
 72
4
 11
0.0002
 21
2.4491
 31
0.0
  0
TEXT
  8
1
  5
AD9
  6
CONTINUOUS
 62
1
 10
-3.7925
 20
1.5162
 30
0.0
  1
following exception:
 40
0.4665
 41
0.839014
 72
4
 11
0.0005
 21
1.7495
 31
0.0
  0
TEXT
  8
1
  5
ADB
  6
CONTINUOUS
 62
1
 10
-0.1306
 20
0.8167
 30
0.0
  1
 
 40
0.4665
 41
0.839014
 72
4
 11
-0.0001
 21
1.05
 31
0.0
  0
TEXT
  8
1
  5
ADD
  6
CONTINUOUS
 62
1
 10
-6.5883
 20
0.1167
 30
0.0
  1
the author encourages all users of
 40
0.4665
 41
0.839014
 72
4
 11
-0.0005
 21
0.35
 31
0.0
  0
TEXT
  8
1
  5
ADF
  6
CONTINUOUS
 62
1
 10
-6.9802
 20
-0.5828
 30
0.0
  1
these drawings to correct errors and
 40
0.4665
 41
0.839014
 72
4
 11
0.0
 21
-0.3495
 31
0.0
  0
TEXT
  8
1
  5
AE1
  6
CONTINUOUS
 62
1
 10
-6.9982
 20
-1.2828
 30
0.0
  1
add items as they please but asks to
 40
0.4665
 41
0.839014
 72
4
 11
0.0004
 21
-1.0495
 31
0.0
  0
TEXT
  8
1
  5
AE3
  6
CONTINUOUS
 62
1
 10
-7.566
 20
-1.9823
 30
0.0
  1
receive those modified drawings before 
 40
0.4665
 41
0.839014
 72
4
 11
0.0002
 21
-1.749
 31
0.0
  0
TEXT
  8
1
  5
AE5
  6
CONTINUOUS
 62
1
 10
-5.5438
 20
-2.6816
 30
0.0
  1
they are distributed further.
 40
0.4665
 41
0.839014
 72
4
 11
-0.0001
 21
-2.4483
 31
0.0
  0
TEXT
  8
1
  5
AE7
  6
CONTINUOUS
 62
1
 10
-0.1306
 20
-3.3826
 30
0.0
  1
 
 40
0.4665
 41
0.839014
 72
4
 11
-0.0001
 21
-3.1493
 31
0.0
  0
TEXT
  8
1
  5
AE9
  6
CONTINUOUS
 62
1
 10
-8.5458
 20
-4.0817
 30
0.0
  1
The objective of this is to define a working
 40
0.4665
 41
0.839014
 72
4
 11
-0.0002
 21
-3.8484
 31
0.0
  0
TEXT
  8
1
  5
AEB
  6
CONTINUOUS
 62
1
 10
-7.179
 20
-4.7817
 30
0.0
  1
system that enables anyone to improve
 40
0.4665
 41
0.839014
 72
4
 11
0.0
 21
-4.5484
 31
0.0
  0
TEXT
  8
1
  5
AED
  6
CONTINUOUS
 62
1
 10
-7.9576
 20
-5.4809
 30
0.0
  1
this design and organize the improvements
 40
0.4665
 41
0.839014
 72
4
 11
0.0
 21
-5.2476
 31
0.0
  0
TEXT
  8
1
  5
AEF
  6
CONTINUOUS
 62
1
 10
-4.3696
 20
-6.1809
 30
0.0
  1
for the benefit of all.
 40
0.4665
 41
0.839014
 72
4
 11
0.0
 21
-5.9476
 31
0.0
  0
TEXT
  8
1
  5
AF1
  6
CONTINUOUS
 62
1
 10
-0.1306
 20
-6.8807
 30
0.0
  1
 
 40
0.4665
 41
0.839014
 72
4
 11
-0.0001
 21
-6.6474
 31
0.0
  0
TEXT
  8
1
  5
AF3
  6
CONTINUOUS
 62
1
 10
-6.3928
 20
-7.5807
 30
0.0
  1
Patrick Poirier can be reached at
 40
0.4665
 41
0.839014
 72
4
 11
0.0003
 21
-7.3474
 31
0.0
  0
TEXT
  8
1
  5
AF5
  6
CONTINUOUS
 62
1
 10
-0.1306
 20
-8.2806
 30
0.0
  1
 
 40
0.4665
 41
0.839014
 72
4
 11
-0.0001
 21
-8.0473
 31
0.0
  0
TEXT
  8
1
  5
AF7
  6
CONTINUOUS
 62
1
 10
-3.0673
 20
-8.9802
 30
0.0
  1
ppr@attcanada.ca
 40
0.4665
 41
0.839014
 72
4
 11
0.0004
 21
-8.7469
 31
0.0
  0
ENDBLK
  8
1
  5
AF8
  0
BLOCK
  8
0
  5
AFA
 70
1
 10
0.0
 20
0.0
 30
0.0
  2
*M2
  3
*M2
  0
TEXT
  8
0
  5
AFC
  6
CONTINUOUS
 62
2
 10
252.9084
 20
78.4655
 30
0.0
  1
325
 40
2.1288
 41
1.004697
  0
LINE
  8
0
  5
AFE
  6
CONTINUOUS
 62
2
 10
272.4372
 20
73.0695
 30
0.0
 11
254.6906
 21
73.0695
 31
0.0
  0
LINE
  8
0
  5
B00
  6
CONTINUOUS
 62
2
 10
272.4372
 20
85.7634
 30
0.0
 11
254.6906
 21
85.7634
 31
0.0
  0
LINE
  8
0
  5
B02
  6
CONTINUOUS
 62
2
 10
256.1167
 20
73.0695
 30
0.0
 11
256.1167
 21
77.6142
 31
0.0
  0
LINE
  8
0
  5
B04
  6
CONTINUOUS
 62
2
 10
256.1167
 20
85.7634
 30
0.0
 11
256.1167
 21
81.446
 31
0.0
  0
SOLID
  8
0
  5
B06
  6
CONTINUOUS
 62
2
 210
0.0
 220
0.0
 230
1.0
 10
256.5443
 20
76.6181
 30
0.0
 11
255.6892
 21
76.6181
 31
0.0
 12
256.1167
 22
73.0695
 32
0.0
 13
256.1167
 23
73.0695
 33
0.0
  0
SOLID
  8
0
  5
B08
  6
CONTINUOUS
 62
2
 10
255.6892
 20
82.2154
 30
0.0
 11
256.5443
 21
82.2154
 31
0.0
 12
256.1167
 22
85.7634
 32
0.0
 13
256.1167
 23
85.7634
 33
0.0
  0
ENDBLK
  8
0
  5
B09
  0
BLOCK
  8
0
  5
B0B
 70
1
 10
0.0
 20
0.0
 30
0.0
  2
*M3
  3
*M3
  0
TEXT
  8
0
  5
B0D
  6
CONTINUOUS
 62
2
 10
-78.4655
 20
252.9084
 30
0.0
  1
325
 40
2.1288
 50
90.0
 41
1.004697
  0
LINE
  8
0
  5
B0F
  6
CONTINUOUS
 62
2
 10
-73.0695
 20
272.4372
 30
0.0
 11
-73.0695
 21
254.6906
 31
0.0
  0
LINE
  8
0
  5
B11
  6
CONTINUOUS
 62
2
 10
-85.7634
 20
272.4372
 30
0.0
 11
-85.7634
 21
254.6906
 31
0.0
  0
LINE
  8
0
  5
B13
  6
CONTINUOUS
 62
2
 10
-73.0695
 20
256.1167
 30
0.0
 11
-77.6142
 21
256.1167
 31
0.0
  0
LINE
  8
0
  5
B15
  6
CONTINUOUS
 62
2
 10
-85.7634
 20
256.1167
 30
0.0
 11
-81.446
 21
256.1167
 31
0.0
  0
SOLID
  8
0
  5
B17
  6
CONTINUOUS
 62
2
 10
-76.6181
 20
256.5443
 30
0.0
 11
-76.6181
 21
255.6892
 31
0.0
 12
-73.0695
 22
256.1167
 32
0.0
 13
-73.0695
 23
256.1167
 33
0.0
  0
SOLID
  8
0
  5
B19
  6
CONTINUOUS
 62
2
 10
-82.2154
 20
255.6892
 30
0.0
 11
-82.2154
 21
256.5443
 31
0.0
 12
-85.7634
 22
256.1167
 32
0.0
 13
-85.7634
 23
256.1167
 33
0.0
  0
ENDBLK
  8
0
  5
B1A
  0
BLOCK
  8
0
  5
B1C
 70
1
 10
0.0
 20
0.0
 30
0.0
  2
*O4
  3
*O4
  0
LINE
  8
0
  5
B1E
  6
CONTINUOUS
 62
7
 10
-0.7677
 20
-5.9178
 30
0.0
 11
-1.4244
 21
-3.5784
 31
0.0
  0
LINE
  8
0
  5
B20
  6
CONTINUOUS
 62
7
 10
-2.168
 20
-0.9149
 30
0.0
 11
-2.301
 21
-0.4356
 31
0.0
  0
LINE
  8
0
  5
B22
  6
CONTINUOUS
 62
7
 10
-4.3501
 20
-0.379
 30
0.0
 11
-2.168
 21
-8.1791
 31
0.0
  0
LINE
  8
0
  5
B24
  6
CONTINUOUS
 62
7
 10
-0.1977
 20
-0.4964
 30
0.0
 11
-0.2008
 21
-0.4849
 31
0.0
  0
LINE
  8
0
  5
B26
  6
CONTINUOUS
 62
7
 10
6.0268
 20
0.0402
 30
0.0
 11
6.0268
 21
-0.0394
 31
0.0
  0
LINE
  8
0
  5
B28
  6
CONTINUOUS
 62
7
 10
5.9672
 20
0.3676
 30
0.0
 11
5.9672
 21
0.3019
 31
0.0
  0
LINE
  8
0
  5
B2A
  6
CONTINUOUS
 62
7
 10
5.9672
 20
-0.3052
 30
0.0
 11
5.9672
 21
-0.3717
 31
0.0
  0
LINE
  8
0
  5
B2C
  6
CONTINUOUS
 62
7
 10
4.5513
 20
0.0402
 30
0.0
 11
4.5513
 21
-0.0394
 31
0.0
  0
POLYLINE
  8
0
  5
B2E
  6
CONTINUOUS
 62
7
 10
0.0
 20
0.0
 30
0.0
 66
1
 70
0
  0
VERTEX
  8
0
  5
B2F
  6
CONTINUOUS
 62
7
 10
4.3772
 20
-9.4082
 30
0.0
  0
VERTEX
  8
0
  5
B30
  6
CONTINUOUS
 62
7
 10
4.3753
 20
-9.4535
 30
0.0
  0
VERTEX
  8
0
  5
B31
  6
CONTINUOUS
 62
7
 10
4.3666
 20
-9.497
 30
0.0
  0
VERTEX
  8
0
  5
B32
  6
CONTINUOUS
 62
7
 10
4.3555
 20
-9.5363
 30
0.0
  0
VERTEX
  8
0
  5
B33
  6
CONTINUOUS
 62
7
 10
4.3384
 20
-9.5756
 30
0.0
  0
VERTEX
  8
0
  5
B34
  6
CONTINUOUS
 62
7
 10
4.3156
 20
-9.6125
 30
0.0
  0
VERTEX
  8
0
  5
B35
  6
CONTINUOUS
 62
7
 10
4.2904
 20
-9.6495
 30
0.0
  0
VERTEX
  8
0
  5
B36
  6
CONTINUOUS
 62
7
 10
4.2583
 20
-9.6815
 30
0.0
  0
SEQEND
  8
0
  5
B37
  0
LINE
  8
0
  5
B39
  6
CONTINUOUS
 62
7
 10
-4.4154
 20
-1.0576
 30
0.0
 11
-4.3963
 21
-1.1413
 31
0.0
  0
LINE
  8
0
  5
B3B
  6
CONTINUOUS
 62
7
 10
-4.2985
 20
0.6893
 30
0.0
 11
-4.3188
 21
0.796
 31
0.0
  0
LINE
  8
0
  5
B3D
  6
CONTINUOUS
 62
7
 10
-4.4154
 20
0.8148
 30
0.0
 11
-4.3963
 21
0.6695
 31
0.0
  0
POLYLINE
  8
0
  5
B3F
  6
CONTINUOUS
 62
7
 210
0.0
 220
0.0
 230
1.0
 10
0.0
 20
0.0
 30
0.0
 66
1
 70
0
  0
VERTEX
  8
0
  5
B40
  6
CONTINUOUS
 62
7
 10
-0.2119
 20
0.394
 30
0.0
  0
VERTEX
  8
0
  5
B41
  6
CONTINUOUS
 62
7
 10
-0.2119
 20
0.4028
 30
0.0
  0
VERTEX
  8
0
  5
B42
  6
CONTINUOUS
 62
7
 10
-0.2094
 20
0.4481
 30
0.0
  0
VERTEX
  8
0
  5
B43
  6
CONTINUOUS
 62
7
 10
-0.1977
 20
0.4974
 30
0.0
  0
VERTEX
  8
0
  5
B44
  6
CONTINUOUS
 62
7
 10
-0.1835
 20
0.5383
 30
0.0
  0
SEQEND
  8
0
  5
B45
  0
POLYLINE
  8
0
  5
B47
  6
CONTINUOUS
 62
7
 10
0.0
 20
0.0
 30
0.0
 66
1
 70
0
  0
VERTEX
  8
0
  5
B48
  6
CONTINUOUS
 62
7
 10
0.4635
 20
0.394
 30
0.0
  0
VERTEX
  8
0
  5
B49
  6
CONTINUOUS
 62
7
 10
0.4635
 20
0.4242
 30
0.0
  0
VERTEX
  8
0
  5
B4A
  6
CONTINUOUS
 62
7
 10
0.4554
 20
0.471
 30
0.0
  0
VERTEX
  8
0
  5
B4B
  6
CONTINUOUS
 62
7
 10
0.4388
 20
0.5128
 30
0.0
  0
VERTEX
  8
0
  5
B4C
  6
CONTINUOUS
 62
7
 10
0.4154
 20
0.5538
 30
0.0
  0
VERTEX
  8
0
  5
B4D
  6
CONTINUOUS
 62
7
 10
0.3871
 20
0.5876
 30
0.0
  0
VERTEX
  8
0
  5
B4E
  6
CONTINUOUS
 62
7
 10
0.3564
 20
0.6188
 30
0.0
  0
VERTEX
  8
0
  5
B4F
  6
CONTINUOUS
 62
7
 10
0.3188
 20
0.6482
 30
0.0
  0
VERTEX
  8
0
  5
B50
  6
CONTINUOUS
 62
7
 10
0.2763
 20
0.6695
 30
0.0
  0
SEQEND
  8
0
  5
B51
  0
LINE
  8
0
  5
B53
  6
CONTINUOUS
 62
7
 10
-0.2008
 20
-0.5185
 30
0.0
 11
-0.2008
 21
-0.3931
 31
0.0
  0
LINE
  8
0
  5
B55
  6
CONTINUOUS
 62
7
 10
-0.5917
 20
-0.5185
 30
0.0
 11
-0.5917
 21
-0.3931
 31
0.0
  0
LINE
  8
0
  5
B57
  6
CONTINUOUS
 62
7
 10
-1.2397
 20
0.394
 30
0.0
 11
-1.2397
 21
0.4332
 31
0.0
  0
LINE
  8
0
  5
B59
  6
CONTINUOUS
 62
7
 10
-1.2989
 20
-0.5185
 30
0.0
 11
-1.2989
 21
-1.8913
 31
0.0
  0
LINE
  8
0
  5
B5B
  6
CONTINUOUS
 62
7
 10
-1.4244
 20
12.0856
 30
0.0
 11
-1.4244
 21
0.394
 31
0.0
  0
LINE
  8
0
  5
B5D
  6
CONTINUOUS
 62
7
 10
-1.4244
 20
-12.0856
 30
0.0
 11
-1.4244
 21
-1.8938
 31
0.0
  0
LINE
  8
0
  5
B5F
  6
CONTINUOUS
 62
7
 10
-1.4244
 20
-1.8913
 30
0.0
 11
-1.4244
 21
-0.3931
 31
0.0
  0
LINE
  8
0
  5
B61
  6
CONTINUOUS
 62
7
 10
-1.4325
 20
-0.3931
 30
0.0
 11
-1.4325
 21
-0.4342
 31
0.0
  0
POLYLINE
  8
0
  5
B63
  6
CONTINUOUS
 62
7
 10
0.0
 20
0.0
 30
0.0
 66
1
 70
0
  0
VERTEX
  8
0
  5
B64
  6
CONTINUOUS
 62
7
 10
-3.9446
 20
0.0
 30
0.0
  0
VERTEX
  8
0
  5
B65
  6
CONTINUOUS
 62
7
 10
-3.9414
 20
-0.0518
 30
0.0
  0
VERTEX
  8
0
  5
B66
  6
CONTINUOUS
 62
7
 10
-3.9334
 20
-0.096
 30
0.0
  0
VERTEX
  8
0
  5
B67
  6
CONTINUOUS
 62
7
 10
-3.9167
 20
-0.1428
 30
0.0
  0
VERTEX
  8
0
  5
B68
  6
CONTINUOUS
 62
7
 10
-3.8965
 20
-0.1886
 30
0.0
  0
VERTEX
  8
0
  5
B69
  6
CONTINUOUS
 62
7
 10
-3.8681
 20
-0.228
 30
0.0
  0
VERTEX
  8
0
  5
B6A
  6
CONTINUOUS
 62
7
 10
-3.8362
 20
-0.265
 30
0.0
  0
VERTEX
  8
0
  5
B6B
  6
CONTINUOUS
 62
7
 10
-3.7999
 20
-0.2971
 30
0.0
  0
VERTEX
  8
0
  5
B6C
  6
CONTINUOUS
 62
7
 10
-3.7598
 20
-0.3257
 30
0.0
  0
VERTEX
  8
0
  5
B6D
  6
CONTINUOUS
 62
7
 10
-3.7149
 20
-0.3454
 30
0.0
  0
VERTEX
  8
0
  5
B6E
  6
CONTINUOUS
 62
7
 10
-3.6694
 20
-0.3618
 30
0.0
  0
VERTEX
  8
0
  5
B6F
  6
CONTINUOUS
 62
7
 10
-3.6207
 20
-0.3717
 30
0.0
  0
VERTEX
  8
0
  5
B70
  6
CONTINUOUS
 62
7
 10
-3.5734
 20
-0.3734
 30
0.0
  0
SEQEND
  8
0
  5
B71
  0
POLYLINE
  8
0
  5
B73
  6
CONTINUOUS
 62
7
 10
0.0
 20
0.0
 30
0.0
 66
1
 70
0
  0
VERTEX
  8
0
  5
B74
  6
CONTINUOUS
 62
7
 10
-5.7217
 20
0.0
 30
0.0
  0
VERTEX
  8
0
  5
B75
  6
CONTINUOUS
 62
7
 10
-5.7161
 20
-0.0518
 30
0.0
  0
VERTEX
  8
0
  5
B76
  6
CONTINUOUS
 62
7
 10
-5.7068
 20
-0.096
 30
0.0
  0
VERTEX
  8
0
  5
B77
  6
CONTINUOUS
 62
7
 10
-5.6928
 20
-0.1428
 30
0.0
  0
VERTEX
  8
0
  5
B78
  6
CONTINUOUS
 62
7
 10
-5.6699
 20
-0.1886
 30
0.0
  0
VERTEX
  8
0
  5
B79
  6
CONTINUOUS
 62
7
 10
-5.6422
 20
-0.228
 30
0.0
  0
VERTEX
  8
0
  5
B7A
  6
CONTINUOUS
 62
7
 10
-5.6102
 20
-0.265
 30
0.0
  0
VERTEX
  8
0
  5
B7B
  6
CONTINUOUS
 62
7
 10
-5.5739
 20
-0.2971
 30
0.0
  0
VERTEX
  8
0
  5
B7C
  6
CONTINUOUS
 62
7
 10
-5.5339
 20
-0.3257
 30
0.0
  0
VERTEX
  8
0
  5
B7D
  6
CONTINUOUS
 62
7
 10
-5.4914
 20
-0.3454
 30
0.0
  0
VERTEX
  8
0
  5
B7E
  6
CONTINUOUS
 62
7
 10
-5.4427
 20
-0.3618
 30
0.0
  0
VERTEX
  8
0
  5
B7F
  6
CONTINUOUS
 62
7
 10
-5.3948
 20
-0.3717
 30
0.0
  0
VERTEX
  8
0
  5
B80
  6
CONTINUOUS
 62
7
 10
-5.3462
 20
-0.3734
 30
0.0
  0
SEQEND
  8
0
  5
B81
  0
POLYLINE
  8
0
  5
B83
  6
CONTINUOUS
 62
7
 10
0.0
 20
0.0
 30
0.0
 66
1
 70
0
  0
VERTEX
  8
0
  5
B84
  6
CONTINUOUS
 62
7
 10
-3.9446
 20
0.0
 30
0.0
  0
VERTEX
  8
0
  5
B85
  6
CONTINUOUS
 62
7
 10
-3.9446
 20
-0.032
 30
0.0
  0
VERTEX
  8
0
  5
B86
  6
CONTINUOUS
 62
7
 10
-3.9414
 20
-0.0607
 30
0.0
  0
VERTEX
  8
0
  5
B87
  6
CONTINUOUS
 62
7
 10
-3.9365
 20
-0.0887
 30
0.0
  0
VERTEX
  8
0
  5
B88
  6
CONTINUOUS
 62
7
 10
-3.9273
 20
-0.1198
 30
0.0
  0
VERTEX
  8
0
  5
B89
  6
CONTINUOUS
 62
7
 10
-3.9167
 20
-0.1485
 30
0.0
  0
VERTEX
  8
0
  5
B8A
  6
CONTINUOUS
 62
7
 10
-3.902
 20
-0.1747
 30
0.0
  0
VERTEX
  8
0
  5
B8B
  6
CONTINUOUS
 62
7
 10
-3.8878
 20
-0.1994
 30
0.0
  0
VERTEX
  8
0
  5
B8C
  6
CONTINUOUS
 62
7
 10
-3.8706
 20
-0.2258
 30
0.0
  0
VERTEX
  8
0
  5
B8D
  6
CONTINUOUS
 62
7
 10
-3.851
 20
-0.247
 30
0.0
  0
VERTEX
  8
0
  5
B8E
  6
CONTINUOUS
 62
7
 10
-3.8306
 20
-0.2708
 30
0.0
  0
VERTEX
  8
0
  5
B8F
  6
CONTINUOUS
 62
7
 10
-3.8085
 20
-0.2913
 30
0.0
  0
VERTEX
  8
0
  5
B90
  6
CONTINUOUS
 62
7
 10
-3.7857
 20
-0.3077
 30
0.0
  0
VERTEX
  8
0
  5
B91
  6
CONTINUOUS
 62
7
 10
-3.7598
 20
-0.3257
 30
0.0
  0
VERTEX
  8
0
  5
B92
  6
CONTINUOUS
 62
7
 10
-3.7321
 20
-0.3398
 30
0.0
  0
VERTEX
  8
0
  5
B93
  6
CONTINUOUS
 62
7
 10
-3.7056
 20
-0.3512
 30
0.0
  0
VERTEX
  8
0
  5
B94
  6
CONTINUOUS
 62
7
 10
-3.6774
 20
-0.3593
 30
0.0
  0
VERTEX
  8
0
  5
B95
  6
CONTINUOUS
 62
7
 10
-3.646
 20
-0.3677
 30
0.0
  0
VERTEX
  8
0
  5
B96
  6
CONTINUOUS
 62
7
 10
-3.6177
 20
-0.3717
 30
0.0
  0
VERTEX
  8
0
  5
B97
  6
CONTINUOUS
 62
7
 10
-3.5899
 20
-0.3734
 30
0.0
  0
VERTEX
  8
0
  5
B98
  6
CONTINUOUS
 62
7
 10
-3.5734
 20
-0.3734
 30
0.0
  0
SEQEND
  8
0
  5
B99
  0
LINE
  8
0
  5
B9B
  6
CONTINUOUS
 62
7
 10
-1.662
 20
0.0402
 30
0.0
 11
-1.662
 21
-0.0394
 31
0.0
  0
LINE
  8
0
  5
B9D
  6
CONTINUOUS
 62
7
 10
-1.7956
 20
12.4763
 30
0.0
 11
-1.7956
 21
11.9028
 31
0.0
  0
LINE
  8
0
  5
B9F
  6
CONTINUOUS
 62
40
 10
-1.7956
 20
-0.4342
 30
0.0
 11
-1.7956
 21
-11.9028
 31
0.0
  0
LINE
  8
0
  5
BA1
  6
CONTINUOUS
 62
7
 10
-1.7956
 20
-11.9028
 30
0.0
 11
-1.7956
 21
-12.4763
 31
0.0
  0
LINE
  8
0
  5
BA3
  6
CONTINUOUS
 62
40
 10
-1.7956
 20
0.394
 30
0.0
 11
-1.7956
 21
11.9028
 31
0.0
  0
LINE
  8
0
  5
BA5
  6
CONTINUOUS
 62
7
 10
-2.168
 20
12.0856
 30
0.0
 11
-2.168
 21
0.394
 31
0.0
  0
LINE
  8
0
  5
BA7
  6
CONTINUOUS
 62
7
 10
-2.168
 20
-12.0856
 30
0.0
 11
-2.168
 21
-0.4342
 31
0.0
  0
LINE
  8
0
  5
BA9
  6
CONTINUOUS
 62
7
 10
-2.4093
 20
-0.3931
 30
0.0
 11
-2.4093
 21
-0.4342
 31
0.0
  0
LINE
  8
0
  5
BAB
  6
CONTINUOUS
 62
7
 10
-3.1301
 20
0.0402
 30
0.0
 11
-3.1301
 21
-0.0394
 31
0.0
  0
LINE
  8
0
  5
BAD
  6
CONTINUOUS
 62
7
 10
-3.7056
 20
0.0402
 30
0.0
 11
-3.7056
 21
-0.0394
 31
0.0
  0
LINE
  8
0
  5
BAF
  6
CONTINUOUS
 62
7
 10
-4.2985
 20
-1.0576
 30
0.0
 11
-4.2985
 21
-0.9329
 31
0.0
  0
LINE
  8
0
  5
BB1
  6
CONTINUOUS
 62
7
 10
-4.3188
 20
0.796
 30
0.0
 11
-4.3188
 21
0.8779
 31
0.0
  0
LINE
  8
0
  5
BB3
  6
CONTINUOUS
 62
7
 10
-4.4154
 20
0.8582
 30
0.0
 11
-4.4154
 21
0.8148
 31
0.0
  0
LINE
  8
0
  5
BB5
  6
CONTINUOUS
 62
7
 10
-4.4154
 20
-0.9526
 30
0.0
 11
-4.4154
 21
-1.0576
 31
0.0
  0
POLYLINE
  8
0
  5
BB7
  6
CONTINUOUS
 62
7
 10
0.0
 20
0.0
 30
0.0
 66
1
 70
0
  0
VERTEX
  8
0
  5
BB8
  6
CONTINUOUS
 62
7
 10
-3.7056
 20
0.0402
 30
0.0
  0
VERTEX
  8
0
  5
BB9
  6
CONTINUOUS
 62
7
 10
-3.7031
 20
0.0624
 30
0.0
  0
VERTEX
  8
0
  5
BBA
  6
CONTINUOUS
 62
7
 10
-3.7002
 20
0.0852
 30
0.0
  0
VERTEX
  8
0
  5
BBB
  6
CONTINUOUS
 62
7
 10
-3.697
 20
0.1083
 30
0.0
  0
VERTEX
  8
0
  5
BBC
  6
CONTINUOUS
 62
7
 10
-3.6921
 20
0.1312
 30
0.0
  0
VERTEX
  8
0
  5
BBD
  6
CONTINUOUS
 62
7
 10
-3.686
 20
0.1535
 30
0.0
  0
VERTEX
  8
0
  5
BBE
  6
CONTINUOUS
 62
7
 10
-3.6774
 20
0.174
 30
0.0
  0
VERTEX
  8
0
  5
BBF
  6
CONTINUOUS
 62
7
 10
-3.6694
 20
0.1969
 30
0.0
  0
VERTEX
  8
0
  5
BC0
  6
CONTINUOUS
 62
7
 10
-3.6577
 20
0.2166
 30
0.0
  0
VERTEX
  8
0
  5
BC1
  6
CONTINUOUS
 62
7
 10
-3.646
 20
0.2354
 30
0.0
  0
VERTEX
  8
0
  5
BC2
  6
CONTINUOUS
 62
7
 10
-3.6324
 20
0.2535
 30
0.0
  0
VERTEX
  8
0
  5
BC3
  6
CONTINUOUS
 62
7
 10
-3.6177
 20
0.2715
 30
0.0
  0
VERTEX
  8
0
  5
BC4
  6
CONTINUOUS
 62
7
 10
-3.601
 20
0.288
 30
0.0
  0
VERTEX
  8
0
  5
BC5
  6
CONTINUOUS
 62
7
 10
-3.5838
 20
0.3052
 30
0.0
  0
VERTEX
  8
0
  5
BC6
  6
CONTINUOUS
 62
7
 10
-3.5673
 20
0.32
 30
0.0
  0
VERTEX
  8
0
  5
BC7
  6
CONTINUOUS
 62
7
 10
-3.5474
 20
0.334
 30
0.0
  0
VERTEX
  8
0
  5
BC8
  6
CONTINUOUS
 62
7
 10
-3.5295
 20
0.3447
 30
0.0
  0
VERTEX
  8
0
  5
BC9
  6
CONTINUOUS
 62
7
 10
-3.5074
 20
0.356
 30
0.0
  0
VERTEX
  8
0
  5
BCA
  6
CONTINUOUS
 62
7
 10
-3.4872
 20
0.3652
 30
0.0
  0
VERTEX
  8
0
  5
BCB
  6
CONTINUOUS
 62
7
 10
-3.4651
 20
0.3734
 30
0.0
  0
VERTEX
  8
0
  5
BCC
  6
CONTINUOUS
 62
7
 10
-3.4447
 20
0.3824
 30
0.0
  0
VERTEX
  8
0
  5
BCD
  6
CONTINUOUS
 62
7
 10
-3.4226
 20
0.3848
 30
0.0
  0
VERTEX
  8
0
  5
BCE
  6
CONTINUOUS
 62
7
 10
-3.3991
 20
0.3906
 30
0.0
  0
VERTEX
  8
0
  5
BCF
  6
CONTINUOUS
 62
7
 10
-3.3763
 20
0.3906
 30
0.0
  0
VERTEX
  8
0
  5
BD0
  6
CONTINUOUS
 62
7
 10
-3.3542
 20
0.394
 30
0.0
  0
SEQEND
  8
0
  5
BD1
  0
POLYLINE
  8
0
  5
BD3
  6
CONTINUOUS
 62
7
 10
0.0
 20
0.0
 30
0.0
 66
1
 70
0
  0
VERTEX
  8
0
  5
BD4
  6
CONTINUOUS
 62
7
 10
-0.1465
 20
-0.3931
 30
0.0
  0
VERTEX
  8
0
  5
BD5
  6
CONTINUOUS
 62
7
 10
-0.1465
 20
-0.4053
 30
0.0
  0
VERTEX
  8
0
  5
BD6
  6
CONTINUOUS
 62
7
 10
-0.1435
 20
-0.4496
 30
0.0
  0
VERTEX
  8
0
  5
BD7
  6
CONTINUOUS
 62
7
 10
-0.133
 20
-0.4923
 30
0.0
  0
VERTEX
  8
0
  5
BD8
  6
CONTINUOUS
 62
7
 10
-0.1231
 20
-0.5161
 30
0.0
  0
SEQEND
  8
0
  5
BD9
  0
POLYLINE
  8
0
  5
BDB
  6
CONTINUOUS
 62
7
 10
0.0
 20
0.0
 30
0.0
 66
1
 70
0
  0
VERTEX
  8
0
  5
BDC
  6
CONTINUOUS
 62
7
 10
0.5293
 20
-0.3931
 30
0.0
  0
VERTEX
  8
0
  5
BDD
  6
CONTINUOUS
 62
7
 10
0.5256
 20
-0.4342
 30
0.0
  0
VERTEX
  8
0
  5
BDE
  6
CONTINUOUS
 62
7
 10
0.5175
 20
-0.4801
 30
0.0
  0
VERTEX
  8
0
  5
BDF
  6
CONTINUOUS
 62
7
 10
0.5028
 20
-0.5244
 30
0.0
  0
VERTEX
  8
0
  5
BE0
  6
CONTINUOUS
 62
7
 10
0.4813
 20
-0.567
 30
0.0
  0
VERTEX
  8
0
  5
BE1
  6
CONTINUOUS
 62
7
 10
0.4523
 20
-0.6106
 30
0.0
  0
VERTEX
  8
0
  5
BE2
  6
CONTINUOUS
 62
7
 10
0.4209
 20
-0.645
 30
0.0
  0
VERTEX
  8
0
  5
BE3
  6
CONTINUOUS
 62
7
 10
0.3871
 20
-0.6753
 30
0.0
  0
VERTEX
  8
0
  5
BE4
  6
CONTINUOUS
 62
7
 10
0.3471
 20
-0.7049
 30
0.0
  0
VERTEX
  8
0
  5
BE5
  6
CONTINUOUS
 62
7
 10
0.3016
 20
-0.7269
 30
0.0
  0
SEQEND
  8
0
  5
BE6
  0
POLYLINE
  8
0
  5
BE8
  6
CONTINUOUS
 62
7
 10
0.0
 20
0.0
 30
0.0
 66
1
 70
0
  0
VERTEX
  8
0
  5
BE9
  6
CONTINUOUS
 62
7
 10
-1.4244
 20
-11.5154
 30
0.0
  0
VERTEX
  8
0
  5
BEA
  6
CONTINUOUS
 62
7
 10
-1.4263
 20
-11.563
 30
0.0
  0
VERTEX
  8
0
  5
BEB
  6
CONTINUOUS
 62
7
 10
-1.435
 20
-11.6115
 30
0.0
  0
VERTEX
  8
0
  5
BEC
  6
CONTINUOUS
 62
7
 10
-1.4521
 20
-11.6573
 30
0.0
  0
VERTEX
  8
0
  5
BED
  6
CONTINUOUS
 62
7
 10
-1.475
 20
-11.7
 30
0.0
  0
VERTEX
  8
0
  5
BEE
  6
CONTINUOUS
 62
7
 10
-1.5008
 20
-11.7402
 30
0.0
  0
VERTEX
  8
0
  5
BEF
  6
CONTINUOUS
 62
7
 10
-1.5315
 20
-11.7771
 30
0.0
  0
VERTEX
  8
0
  5
BF0
  6
CONTINUOUS
 62
7
 10
-1.5685
 20
-11.8083
 30
0.0
  0
VERTEX
  8
0
  5
BF1
  6
CONTINUOUS
 62
7
 10
-1.6109
 20
-11.8379
 30
0.0
  0
VERTEX
  8
0
  5
BF2
  6
CONTINUOUS
 62
7
 10
-1.6534
 20
-11.86
 30
0.0
  0
VERTEX
  8
0
  5
BF3
  6
CONTINUOUS
 62
7
 10
-1.6995
 20
-11.8748
 30
0.0
  0
VERTEX
  8
0
  5
BF4
  6
CONTINUOUS
 62
7
 10
-1.7483
 20
-11.8831
 30
0.0
  0
VERTEX
  8
0
  5
BF5
  6
CONTINUOUS
 62
7
 10
-1.7956
 20
-11.8888
 30
0.0
  0
SEQEND
  8
0
  5
BF6
  0
POLYLINE
  8
0
  5
BF8
  6
CONTINUOUS
 62
7
 10
0.0
 20
0.0
 30
0.0
 66
1
 70
0
  0
VERTEX
  8
0
  5
BF9
  6
CONTINUOUS
 62
7
 10
-2.168
 20
11.5155
 30
0.0
  0
VERTEX
  8
0
  5
BFA
  6
CONTINUOUS
 62
7
 10
-2.1649
 20
11.563
 30
0.0
  0
VERTEX
  8
0
  5
BFB
  6
CONTINUOUS
 62
7
 10
-2.1557
 20
11.6122
 30
0.0
  0
VERTEX
  8
0
  5
BFC
  6
CONTINUOUS
 62
7
 10
-2.1391
 20
11.6574
 30
0.0
  0
VERTEX
  8
0
  5
BFD
  6
CONTINUOUS
 62
7
 10
-2.1195
 20
11.7
 30
0.0
  0
VERTEX
  8
0
  5
BFE
  6
CONTINUOUS
 62
7
 10
-2.091
 20
11.7403
 30
0.0
  0
VERTEX
  8
0
  5
BFF
  6
CONTINUOUS
 62
7
 10
-2.0597
 20
11.7772
 30
0.0
  0
VERTEX
  8
0
  5
C00
  6
CONTINUOUS
 62
7
 10
-2.0228
 20
11.8082
 30
0.0
  0
VERTEX
  8
0
  5
C01
  6
CONTINUOUS
 62
7
 10
-1.9834
 20
11.8378
 30
0.0
  0
VERTEX
  8
0
  5
C02
  6
CONTINUOUS
 62
7
 10
-1.9373
 20
11.8593
 30
0.0
  0
VERTEX
  8
0
  5
C03
  6
CONTINUOUS
 62
7
 10
-1.8947
 20
11.8747
 30
0.0
  0
VERTEX
  8
0
  5
C04
  6
CONTINUOUS
 62
7
 10
-1.8466
 20
11.8831
 30
0.0
  0
VERTEX
  8
0
  5
C05
  6
CONTINUOUS
 62
7
 10
-1.7956
 20
11.8887
 30
0.0
  0
SEQEND
  8
0
  5
C06
  0
LINE
  8
0
  5
C08
  6
CONTINUOUS
 62
7
 10
-3.9414
 20
0.0509
 30
0.0
 11
-3.9446
 21
0.0
 31
0.0
  0
LINE
  8
0
  5
C0A
  6
CONTINUOUS
 62
7
 10
-4.3963
 20
1.0036
 30
0.0
 11
-4.4154
 21
0.8582
 31
0.0
  0
POLYLINE
  8
0
  5
C0C
  6
CONTINUOUS
 62
7
 10
0.0
 20
0.0
 30
0.0
 66
1
 70
0
  0
VERTEX
  8
0
  5
C0D
  6
CONTINUOUS
 62
7
 10
-1.4287
 20
-11.5786
 30
0.0
  0
VERTEX
  8
0
  5
C0E
  6
CONTINUOUS
 62
7
 10
-1.4386
 20
-11.6204
 30
0.0
  0
VERTEX
  8
0
  5
C0F
  6
CONTINUOUS
 62
7
 10
-1.4552
 20
-11.6631
 30
0.0
  0
VERTEX
  8
0
  5
C10
  6
CONTINUOUS
 62
7
 10
-1.475
 20
-11.7
 30
0.0
  0
VERTEX
  8
0
  5
C11
  6
CONTINUOUS
 62
7
 10
-1.4977
 20
-11.7377
 30
0.0
  0
VERTEX
  8
0
  5
C12
  6
CONTINUOUS
 62
7
 10
-1.5266
 20
-11.7714
 30
0.0
  0
VERTEX
  8
0
  5
C13
  6
CONTINUOUS
 62
7
 10
-1.5573
 20
-11.8002
 30
0.0
  0
VERTEX
  8
0
  5
C14
  6
CONTINUOUS
 62
7
 10
-1.5913
 20
-11.8264
 30
0.0
  0
VERTEX
  8
0
  5
C15
  6
CONTINUOUS
 62
7
 10
-1.6276
 20
-11.8495
 30
0.0
  0
VERTEX
  8
0
  5
C16
  6
CONTINUOUS
 62
7
 10
-1.6676
 20
-11.8659
 30
0.0
  0
VERTEX
  8
0
  5
C17
  6
CONTINUOUS
 62
7
 10
-1.7101
 20
-11.8772
 30
0.0
  0
SEQEND
  8
0
  5
C18
  0
LINE
  8
0
  5
C1A
  6
CONTINUOUS
 62
7
 10
-4.3963
 20
-0.85
 30
0.0
 11
-4.4154
 21
-0.9526
 31
0.0
  0
LINE
  8
0
  5
C1C
  6
CONTINUOUS
 62
7
 10
-4.3188
 20
0.8779
 30
0.0
 11
-4.2985
 21
0.9805
 31
0.0
  0
POLYLINE
  8
0
  5
C1E
  6
CONTINUOUS
 62
7
 10
0.0
 20
0.0
 30
0.0
 66
1
 70
0
  0
VERTEX
  8
0
  5
C1F
  6
CONTINUOUS
 62
7
 10
-2.1619
 20
11.5786
 30
0.0
  0
VERTEX
  8
0
  5
C20
  6
CONTINUOUS
 62
7
 10
-2.1532
 20
11.6197
 30
0.0
  0
VERTEX
  8
0
  5
C21
  6
CONTINUOUS
 62
7
 10
-2.1391
 20
11.6606
 30
0.0
  0
VERTEX
  8
0
  5
C22
  6
CONTINUOUS
 62
7
 10
-2.1195
 20
11.7
 30
0.0
  0
VERTEX
  8
0
  5
C23
  6
CONTINUOUS
 62
7
 10
-2.0935
 20
11.7377
 30
0.0
  0
VERTEX
  8
0
  5
C24
  6
CONTINUOUS
 62
7
 10
-2.0689
 20
11.769
 30
0.0
  0
VERTEX
  8
0
  5
C25
  6
CONTINUOUS
 62
7
 10
-2.0369
 20
11.8009
 30
0.0
  0
VERTEX
  8
0
  5
C26
  6
CONTINUOUS
 62
7
 10
-2.0006
 20
11.8265
 30
0.0
  0
VERTEX
  8
0
  5
C27
  6
CONTINUOUS
 62
7
 10
-1.9631
 20
11.8494
 30
0.0
  0
VERTEX
  8
0
  5
C28
  6
CONTINUOUS
 62
7
 10
-1.9237
 20
11.865
 30
0.0
  0
VERTEX
  8
0
  5
C29
  6
CONTINUOUS
 62
7
 10
-1.8843
 20
11.8773
 30
0.0
  0
SEQEND
  8
0
  5
C2A
  0
POLYLINE
  8
0
  5
C2C
  6
CONTINUOUS
 62
7
 10
0.0
 20
0.0
 30
0.0
 66
1
 70
0
  0
VERTEX
  8
0
  5
C2D
  6
CONTINUOUS
 62
7
 10
-0.133
 20
0.4931
 30
0.0
  0
VERTEX
  8
0
  5
C2E
  6
CONTINUOUS
 62
7
 10
-0.1435
 20
0.4506
 30
0.0
  0
VERTEX
  8
0
  5
C2F
  6
CONTINUOUS
 62
7
 10
-0.1465
 20
0.4045
 30
0.0
  0
VERTEX
  8
0
  5
C30
  6
CONTINUOUS
 62
7
 10
-0.1465
 20
0.394
 30
0.0
  0
SEQEND
  8
0
  5
C31
  0
LINE
  8
0
  5
C33
  6
CONTINUOUS
 62
7
 10
-2.3146
 20
0.394
 30
0.0
 11
-2.168
 21
0.9148
 31
0.0
  0
LINE
  8
0
  5
C35
  6
CONTINUOUS
 62
7
 10
-1.4244
 20
3.5782
 30
0.0
 11
-0.7677
 21
5.9178
 31
0.0
  0
LINE
  8
0
  5
C37
  6
CONTINUOUS
 62
7
 10
1.6274
 20
-5.2267
 30
0.0
 11
1.721
 21
-5.002
 31
0.0
  0
LINE
  8
0
  5
C39
  6
CONTINUOUS
 62
7
 10
2.1156
 20
-4.0306
 30
0.0
 11
3.5739
 21
-0.448
 31
0.0
  0
LINE
  8
0
  5
C3B
  6
CONTINUOUS
 62
7
 10
-2.168
 20
8.1767
 30
0.0
 11
-4.3501
 21
0.3798
 31
0.0
  0
LINE
  8
0
  5
C3D
  6
CONTINUOUS
 62
7
 10
-5.3012
 20
0.3734
 30
0.0
 11
-4.8469
 21
1.9643
 31
0.0
  0
LINE
  8
0
  5
C3F
  6
CONTINUOUS
 62
7
 10
-5.3751
 20
0.3734
 30
0.0
 11
-2.6304
 21
9.9818
 31
0.0
  0
LINE
  8
0
  5
C41
  6
CONTINUOUS
 62
7
 10
-6.2947
 20
0.0
 30
0.0
 11
-3.3826
 21
10.1984
 31
0.0
  0
LINE
  8
0
  5
C43
  6
CONTINUOUS
 62
7
 10
-6.3001
 20
0.023
 30
0.0
 11
-5.7463
 21
1.9643
 31
0.0
  0
LINE
  8
0
  5
C45
  6
CONTINUOUS
 62
3
 10
-6.3772
 20
0.0427
 30
0.0
 11
-5.8207
 21
1.9882
 31
0.0
  0
LINE
  8
0
  5
C47
  6
CONTINUOUS
 62
3
 10
-6.3944
 20
0.0427
 30
0.0
 11
-5.9395
 21
1.6304
 31
0.0
  0
LINE
  8
0
  5
C49
  6
CONTINUOUS
 62
7
 10
-2.168
 20
11.2078
 30
0.0
 11
-3.0218
 21
8.3499
 31
0.0
  0
LINE
  8
0
  5
C4B
  6
CONTINUOUS
 62
7
 10
-2.168
 20
10.6391
 30
0.0
 11
-5.2821
 21
0.3767
 31
0.0
  0
LINE
  8
0
  5
C4D
  6
CONTINUOUS
 62
7
 10
-4.2985
 20
-0.9329
 30
0.0
 11
-4.2793
 21
-0.8698
 31
0.0
  0
LINE
  8
0
  5
C4F
  6
CONTINUOUS
 62
7
 10
-1.4244
 20
0.8895
 30
0.0
 11
-1.0262
 21
2.1046
 31
0.0
  0
LINE
  8
0
  5
C51
  6
CONTINUOUS
 62
7
 10
-0.1231
 20
0.5128
 30
0.0
 11
-0.133
 21
0.4931
 31
0.0
  0
LINE
  8
0
  5
C53
  6
CONTINUOUS
 62
7
 10
4.579
 20
9.8045
 30
0.0
 11
0.5656
 21
0.3962
 31
0.0
  0
LINE
  8
0
  5
C55
  6
CONTINUOUS
 62
7
 10
0.1595
 20
0.394
 30
0.0
 11
0.2818
 21
0.6786
 31
0.0
  0
LINE
  8
0
  5
C57
  6
CONTINUOUS
 62
7
 10
3.8951
 20
10.0976
 30
0.0
 11
-0.1835
 21
0.5383
 31
0.0
  0
POLYLINE
  8
0
  5
C59
  6
CONTINUOUS
 62
40
 210
0.0
 220
0.0
 230
1.0
 10
0.0
 20
0.0
 30
0.0
 66
1
 70
0
  0
VERTEX
  8
0
  5
C5A
  6
CONTINUOUS
 62
40
 10
0.1595
 20
0.394
 30
0.0
  0
VERTEX
  8
0
  5
C5B
  6
CONTINUOUS
 62
40
 10
0.2017
 20
0.4875
 30
0.0
  0
VERTEX
  8
0
  5
C5C
  6
CONTINUOUS
 62
40
 10
0.288
 20
0.6737
 30
0.0
  0
SEQEND
  8
0
  5
C5D
  0
POLYLINE
  8
0
  5
C5F
  6
CONTINUOUS
 62
7
 10
0.0
 20
0.0
 30
0.0
 66
1
 70
0
  0
VERTEX
  8
0
  5
C60
  6
CONTINUOUS
 62
7
 10
3.6625
 20
9.5551
 30
0.0
  0
VERTEX
  8
0
  5
C61
  6
CONTINUOUS
 62
7
 10
3.686
 20
9.5995
 30
0.0
  0
VERTEX
  8
0
  5
C62
  6
CONTINUOUS
 62
7
 10
3.7142
 20
9.6381
 30
0.0
  0
VERTEX
  8
0
  5
C63
  6
CONTINUOUS
 62
7
 10
3.7449
 20
9.6758
 30
0.0
  0
VERTEX
  8
0
  5
C64
  6
CONTINUOUS
 62
7
 10
3.7818
 20
9.7061
 30
0.0
  0
VERTEX
  8
0
  5
C65
  6
CONTINUOUS
 62
7
 10
3.8213
 20
9.7325
 30
0.0
  0
VERTEX
  8
0
  5
C66
  6
CONTINUOUS
 62
7
 10
3.8668
 20
9.7562
 30
0.0
  0
VERTEX
  8
0
  5
C67
  6
CONTINUOUS
 62
7
 10
3.913
 20
9.7702
 30
0.0
  0
VERTEX
  8
0
  5
C68
  6
CONTINUOUS
 62
7
 10
3.9611
 20
9.7792
 30
0.0
  0
VERTEX
  8
0
  5
C69
  6
CONTINUOUS
 62
7
 10
4.0089
 20
9.7807
 30
0.0
  0
VERTEX
  8
0
  5
C6A
  6
CONTINUOUS
 62
7
 10
4.057
 20
9.7792
 30
0.0
  0
VERTEX
  8
0
  5
C6B
  6
CONTINUOUS
 62
7
 10
4.1057
 20
9.7668
 30
0.0
  0
VERTEX
  8
0
  5
C6C
  6
CONTINUOUS
 62
7
 10
4.1506
 20
9.7504
 30
0.0
  0
SEQEND
  8
0
  5
C6D
  0
POLYLINE
  8
0
  5
C6F
  6
CONTINUOUS
 62
7
 10
0.0
 20
0.0
 30
0.0
 66
1
 70
0
  0
VERTEX
  8
0
  5
C70
  6
CONTINUOUS
 62
7
 10
-0.1835
 20
0.5383
 30
0.0
  0
VERTEX
  8
0
  5
C71
  6
CONTINUOUS
 62
7
 10
-0.1614
 20
0.5817
 30
0.0
  0
VERTEX
  8
0
  5
C72
  6
CONTINUOUS
 62
7
 10
-0.1355
 20
0.6212
 30
0.0
  0
VERTEX
  8
0
  5
C73
  6
CONTINUOUS
 62
7
 10
-0.1016
 20
0.6557
 30
0.0
  0
VERTEX
  8
0
  5
C74
  6
CONTINUOUS
 62
7
 10
-0.0672
 20
0.6875
 30
0.0
  0
VERTEX
  8
0
  5
C75
  6
CONTINUOUS
 62
7
 10
-0.0247
 20
0.7123
 30
0.0
  0
VERTEX
  8
0
  5
C76
  6
CONTINUOUS
 62
7
 10
0.0178
 20
0.7327
 30
0.0
  0
VERTEX
  8
0
  5
C77
  6
CONTINUOUS
 62
7
 10
0.0634
 20
0.7467
 30
0.0
  0
VERTEX
  8
0
  5
C78
  6
CONTINUOUS
 62
7
 10
0.112
 20
0.7565
 30
0.0
  0
VERTEX
  8
0
  5
C79
  6
CONTINUOUS
 62
7
 10
0.1595
 20
0.7583
 30
0.0
  0
VERTEX
  8
0
  5
C7A
  6
CONTINUOUS
 62
7
 10
0.2081
 20
0.7524
 30
0.0
  0
VERTEX
  8
0
  5
C7B
  6
CONTINUOUS
 62
7
 10
0.2542
 20
0.7442
 30
0.0
  0
VERTEX
  8
0
  5
C7C
  6
CONTINUOUS
 62
7
 10
0.3016
 20
0.7262
 30
0.0
  0
SEQEND
  8
0
  5
C7D
  0
LINE
  8
0
  5
C7F
  6
CONTINUOUS
 62
7
 10
-4.3563
 20
1.0865
 30
0.0
 11
-4.3963
 21
1.0036
 31
0.0
  0
POLYLINE
  8
0
  5
C81
  6
CONTINUOUS
 62
7
 10
0.0
 20
0.0
 30
0.0
 66
1
 70
0
  0
VERTEX
  8
0
  5
C82
  6
CONTINUOUS
 62
7
 10
3.6717
 20
9.5756
 30
0.0
  0
VERTEX
  8
0
  5
C83
  6
CONTINUOUS
 62
7
 10
3.6945
 20
9.6133
 30
0.0
  0
VERTEX
  8
0
  5
C84
  6
CONTINUOUS
 62
7
 10
3.7196
 20
9.648
 30
0.0
  0
VERTEX
  8
0
  5
C85
  6
CONTINUOUS
 62
7
 10
3.7481
 20
9.6798
 30
0.0
  0
VERTEX
  8
0
  5
C86
  6
CONTINUOUS
 62
7
 10
3.7818
 20
9.7061
 30
0.0
  0
VERTEX
  8
0
  5
C87
  6
CONTINUOUS
 62
7
 10
3.8189
 20
9.7299
 30
0.0
  0
VERTEX
  8
0
  5
C88
  6
CONTINUOUS
 62
7
 10
3.8551
 20
9.7504
 30
0.0
  0
VERTEX
  8
0
  5
C89
  6
CONTINUOUS
 62
7
 10
3.8983
 20
9.7668
 30
0.0
  0
VERTEX
  8
0
  5
C8A
  6
CONTINUOUS
 62
7
 10
3.9376
 20
9.7759
 30
0.0
  0
VERTEX
  8
0
  5
C8B
  6
CONTINUOUS
 62
7
 10
3.9832
 20
9.7807
 30
0.0
  0
VERTEX
  8
0
  5
C8C
  6
CONTINUOUS
 62
7
 10
4.0256
 20
9.7807
 30
0.0
  0
SEQEND
  8
0
  5
C8D
  0
LINE
  8
0
  5
C8F
  6
CONTINUOUS
 62
7
 10
-4.2985
 20
0.9805
 30
0.0
 11
-4.2597
 21
1.0429
 31
0.0
  0
LINE
  8
0
  5
C91
  6
CONTINUOUS
 62
7
 10
-2.2099
 20
-0.7615
 30
0.0
 11
-2.1699
 21
-0.7049
 31
0.0
  0
LINE
  8
0
  5
C93
  6
CONTINUOUS
 62
7
 10
-4.3367
 20
-0.7681
 30
0.0
 11
-4.3963
 21
-0.85
 31
0.0
  0
POLYLINE
  8
0
  5
C95
  6
CONTINUOUS
 62
7
 10
0.0
 20
0.0
 30
0.0
 66
1
 70
0
  0
VERTEX
  8
0
  5
C96
  6
CONTINUOUS
 62
7
 10
4.2583
 20
-9.6815
 30
0.0
  0
VERTEX
  8
0
  5
C97
  6
CONTINUOUS
 62
7
 10
4.2276
 20
-9.7069
 30
0.0
  0
VERTEX
  8
0
  5
C98
  6
CONTINUOUS
 62
7
 10
4.1906
 20
-9.7332
 30
0.0
  0
VERTEX
  8
0
  5
C99
  6
CONTINUOUS
 62
7
 10
4.1506
 20
-9.7529
 30
0.0
  0
SEQEND
  8
0
  5
C9A
  0
POLYLINE
  8
0
  5
C9C
  6
CONTINUOUS
 62
7
 210
0.0
 220
0.0
 230
1.0
 10
0.0
 20
0.0
 30
0.0
 66
1
 70
0
  0
VERTEX
  8
0
  5
C9D
  6
CONTINUOUS
 62
7
 10
-0.0609
 20
0.6072
 30
0.0
  0
VERTEX
  8
0
  5
C9E
  6
CONTINUOUS
 62
7
 10
-0.0894
 20
0.5735
 30
0.0
  0
VERTEX
  8
0
  5
C9F
  6
CONTINUOUS
 62
7
 10
-0.1127
 20
0.5366
 30
0.0
  0
VERTEX
  8
0
  5
CA0
  6
CONTINUOUS
 62
7
 10
-0.1231
 20
0.5128
 30
0.0
  0
SEQEND
  8
0
  5
CA1
  0
LINE
  8
0
  5
CA3
  6
CONTINUOUS
 62
7
 10
1.1534
 20
-1.7732
 30
0.0
 11
2.6302
 21
-0.4399
 31
0.0
  0
LINE
  8
0
  5
CA5
  6
CONTINUOUS
 62
7
 10
-4.2793
 20
-0.8698
 30
0.0
 11
-4.2393
 21
-0.8263
 31
0.0
  0
LINE
  8
0
  5
CA7
  6
CONTINUOUS
 62
7
 10
-4.2793
 20
1.1684
 30
0.0
 11
-4.3563
 21
1.0865
 31
0.0
  0
LINE
  8
0
  5
CA9
  6
CONTINUOUS
 62
7
 10
-2.213
 20
-0.5793
 30
0.0
 11
-2.2524
 21
-0.6187
 31
0.0
  0
LINE
  8
0
  5
CAB
  6
CONTINUOUS
 62
7
 10
-4.2597
 20
-0.7049
 30
0.0
 11
-4.3367
 21
-0.7681
 31
0.0
  0
LINE
  8
0
  5
CAD
  6
CONTINUOUS
 62
7
 10
-4.2597
 20
1.0429
 30
0.0
 11
-4.2025
 21
1.0865
 31
0.0
  0
LINE
  8
0
  5
CAF
  6
CONTINUOUS
 62
7
 10
-2.1699
 20
-0.7049
 30
0.0
 11
-2.168
 21
-0.7016
 31
0.0
  0
LINE
  8
0
  5
CB1
  6
CONTINUOUS
 62
7
 10
0.032
 20
-6.2967
 30
0.0
 11
1.0175
 21
-5.8603
 31
0.0
  0
LINE
  8
0
  5
CB3
  6
CONTINUOUS
 62
7
 10
-0.0388
 20
-8.7388
 30
0.0
 11
1.2219
 21
-8.2414
 31
0.0
  0
POLYLINE
  8
0
  5
CB5
  6
CONTINUOUS
 62
7
 10
0.0
 20
0.0
 30
0.0
 66
1
 70
0
  0
VERTEX
  8
0
  5
CB6
  6
CONTINUOUS
 62
7
 10
4.1506
 20
-9.7529
 30
0.0
  0
VERTEX
  8
0
  5
CB7
  6
CONTINUOUS
 62
7
 10
4.1118
 20
-9.7677
 30
0.0
  0
VERTEX
  8
0
  5
CB8
  6
CONTINUOUS
 62
7
 10
4.0682
 20
-9.7759
 30
0.0
  0
SEQEND
  8
0
  5
CB9
  0
POLYLINE
  8
0
  5
CBB
  6
CONTINUOUS
 62
7
 10
0.0
 20
0.0
 30
0.0
 66
1
 70
0
  0
VERTEX
  8
0
  5
CBC
  6
CONTINUOUS
 62
7
 10
4.1506
 20
-9.7529
 30
0.0
  0
VERTEX
  8
0
  5
CBD
  6
CONTINUOUS
 62
7
 10
4.1057
 20
-9.7677
 30
0.0
  0
VERTEX
  8
0
  5
CBE
  6
CONTINUOUS
 62
7
 10
4.057
 20
-9.78
 30
0.0
  0
VERTEX
  8
0
  5
CBF
  6
CONTINUOUS
 62
7
 10
4.0089
 20
-9.7817
 30
0.0
  0
VERTEX
  8
0
  5
CC0
  6
CONTINUOUS
 62
7
 10
3.9611
 20
-9.78
 30
0.0
  0
VERTEX
  8
0
  5
CC1
  6
CONTINUOUS
 62
7
 10
3.913
 20
-9.7701
 30
0.0
  0
VERTEX
  8
0
  5
CC2
  6
CONTINUOUS
 62
7
 10
3.8668
 20
-9.7561
 30
0.0
  0
VERTEX
  8
0
  5
CC3
  6
CONTINUOUS
 62
7
 10
3.8213
 20
-9.7332
 30
0.0
  0
VERTEX
  8
0
  5
CC4
  6
CONTINUOUS
 62
7
 10
3.7818
 20
-9.7069
 30
0.0
  0
VERTEX
  8
0
  5
CC5
  6
CONTINUOUS
 62
7
 10
3.7449
 20
-9.6758
 30
0.0
  0
VERTEX
  8
0
  5
CC6
  6
CONTINUOUS
 62
7
 10
3.7142
 20
-9.6389
 30
0.0
  0
VERTEX
  8
0
  5
CC7
  6
CONTINUOUS
 62
7
 10
3.686
 20
-9.5986
 30
0.0
  0
VERTEX
  8
0
  5
CC8
  6
CONTINUOUS
 62
7
 10
3.6625
 20
-9.556
 30
0.0
  0
SEQEND
  8
0
  5
CC9
  0
LINE
  8
0
  5
CCB
  6
CONTINUOUS
 62
7
 10
-4.2393
 20
-0.8263
 30
0.0
 11
-4.2258
 21
-0.8214
 31
0.0
  0
POLYLINE
  8
0
  5
CCD
  6
CONTINUOUS
 62
7
 10
0.0
 20
0.0
 30
0.0
 66
1
 70
0
  0
VERTEX
  8
0
  5
CCE
  6
CONTINUOUS
 62
7
 10
0.2763
 20
-0.6695
 30
0.0
  0
VERTEX
  8
0
  5
CCF
  6
CONTINUOUS
 62
7
 10
0.3188
 20
-0.6475
 30
0.0
  0
VERTEX
  8
0
  5
CD0
  6
CONTINUOUS
 62
7
 10
0.3564
 20
-0.6187
 30
0.0
  0
VERTEX
  8
0
  5
CD1
  6
CONTINUOUS
 62
7
 10
0.3871
 20
-0.5909
 30
0.0
  0
VERTEX
  8
0
  5
CD2
  6
CONTINUOUS
 62
7
 10
0.4154
 20
-0.553
 30
0.0
  0
VERTEX
  8
0
  5
CD3
  6
CONTINUOUS
 62
7
 10
0.4388
 20
-0.5128
 30
0.0
  0
VERTEX
  8
0
  5
CD4
  6
CONTINUOUS
 62
7
 10
0.4554
 20
-0.4711
 30
0.0
  0
VERTEX
  8
0
  5
CD5
  6
CONTINUOUS
 62
7
 10
0.4635
 20
-0.4242
 30
0.0
  0
VERTEX
  8
0
  5
CD6
  6
CONTINUOUS
 62
7
 10
0.4635
 20
-0.3931
 30
0.0
  0
SEQEND
  8
0
  5
CD7
  0
LINE
  8
0
  5
CD9
  6
CONTINUOUS
 62
7
 10
-2.168
 20
-0.5596
 30
0.0
 11
-2.213
 21
-0.5793
 31
0.0
  0
LINE
  8
0
  5
CDB
  6
CONTINUOUS
 62
7
 10
-3.3826
 20
-10.1976
 30
0.0
 11
-2.6304
 21
-9.9809
 31
0.0
  0
POLYLINE
  8
0
  5
CDD
  6
CONTINUOUS
 62
7
 210
0.0
 220
0.0
 230
1.0
 10
0.0
 20
0.0
 30
0.0
 66
1
 70
0
  0
VERTEX
  8
0
  5
CDE
  6
CONTINUOUS
 62
7
 10
-1.7101
 20
-11.8772
 30
0.0
  0
VERTEX
  8
0
  5
CDF
  6
CONTINUOUS
 62
7
 10
-1.7531
 20
-11.8871
 30
0.0
  0
VERTEX
  8
0
  5
CE0
  6
CONTINUOUS
 62
7
 10
-1.7956
 20
-11.8888
 30
0.0
  0
SEQEND
  8
0
  5
CE1
  0
LINE
  8
0
  5
CE3
  6
CONTINUOUS
 62
7
 10
-4.1199
 20
-1.1939
 30
0.0
 11
-4.1432
 21
-1.2038
 31
0.0
  0
POLYLINE
  8
0
  5
CE5
  6
CONTINUOUS
 62
7
 10
0.0
 20
0.0
 30
0.0
 66
1
 70
0
  0
VERTEX
  8
0
  5
CE6
  6
CONTINUOUS
 62
7
 10
0.3016
 20
-0.7269
 30
0.0
  0
VERTEX
  8
0
  5
CE7
  6
CONTINUOUS
 62
7
 10
0.2542
 20
-0.7444
 30
0.0
  0
VERTEX
  8
0
  5
CE8
  6
CONTINUOUS
 62
7
 10
0.2081
 20
-0.7532
 30
0.0
  0
VERTEX
  8
0
  5
CE9
  6
CONTINUOUS
 62
7
 10
0.1595
 20
-0.7582
 30
0.0
  0
VERTEX
  8
0
  5
CEA
  6
CONTINUOUS
 62
7
 10
0.112
 20
-0.7557
 30
0.0
  0
VERTEX
  8
0
  5
CEB
  6
CONTINUOUS
 62
7
 10
0.0634
 20
-0.7466
 30
0.0
  0
VERTEX
  8
0
  5
CEC
  6
CONTINUOUS
 62
7
 10
0.0178
 20
-0.7328
 30
0.0
  0
VERTEX
  8
0
  5
CED
  6
CONTINUOUS
 62
7
 10
-0.0247
 20
-0.713
 30
0.0
  0
VERTEX
  8
0
  5
CEE
  6
CONTINUOUS
 62
7
 10
-0.0672
 20
-0.6876
 30
0.0
  0
VERTEX
  8
0
  5
CEF
  6
CONTINUOUS
 62
7
 10
-0.1016
 20
-0.6556
 30
0.0
  0
VERTEX
  8
0
  5
CF0
  6
CONTINUOUS
 62
7
 10
-0.1355
 20
-0.6227
 30
0.0
  0
VERTEX
  8
0
  5
CF1
  6
CONTINUOUS
 62
7
 10
-0.1614
 20
-0.581
 30
0.0
  0
VERTEX
  8
0
  5
CF2
  6
CONTINUOUS
 62
7
 10
-0.1835
 20
-0.5424
 30
0.0
  0
SEQEND
  8
0
  5
CF3
  0
LINE
  8
0
  5
CF5
  6
CONTINUOUS
 62
7
 10
-0.3024
 20
-2.4862
 30
0.0
 11
0.4468
 21
-2.2614
 31
0.0
  0
POLYLINE
  8
0
  5
CF7
  6
CONTINUOUS
 62
7
 10
0.0
 20
0.0
 30
0.0
 66
1
 70
0
  0
VERTEX
  8
0
  5
CF8
  6
CONTINUOUS
 62
7
 10
4.0682
 20
-9.7759
 30
0.0
  0
VERTEX
  8
0
  5
CF9
  6
CONTINUOUS
 62
7
 10
4.0256
 20
-9.7817
 30
0.0
  0
VERTEX
  8
0
  5
CFA
  6
CONTINUOUS
 62
7
 10
3.9832
 20
-9.7817
 30
0.0
  0
VERTEX
  8
0
  5
CFB
  6
CONTINUOUS
 62
7
 10
3.9376
 20
-9.7759
 30
0.0
  0
VERTEX
  8
0
  5
CFC
  6
CONTINUOUS
 62
7
 10
3.8983
 20
-9.7677
 30
0.0
  0
VERTEX
  8
0
  5
CFD
  6
CONTINUOUS
 62
7
 10
3.8551
 20
-9.7496
 30
0.0
  0
VERTEX
  8
0
  5
CFE
  6
CONTINUOUS
 62
7
 10
3.8189
 20
-9.7332
 30
0.0
  0
VERTEX
  8
0
  5
CFF
  6
CONTINUOUS
 62
7
 10
3.7818
 20
-9.7069
 30
0.0
  0
VERTEX
  8
0
  5
D00
  6
CONTINUOUS
 62
7
 10
3.7481
 20
-9.679
 30
0.0
  0
VERTEX
  8
0
  5
D01
  6
CONTINUOUS
 62
7
 10
3.7196
 20
-9.6479
 30
0.0
  0
VERTEX
  8
0
  5
D02
  6
CONTINUOUS
 62
7
 10
3.6945
 20
-9.6125
 30
0.0
  0
VERTEX
  8
0
  5
D03
  6
CONTINUOUS
 62
7
 10
3.6717
 20
-9.5756
 30
0.0
  0
VERTEX
  8
0
  5
D04
  6
CONTINUOUS
 62
7
 10
3.6625
 20
-9.556
 30
0.0
  0
SEQEND
  8
0
  5
D05
  0
LINE
  8
0
  5
D07
  6
CONTINUOUS
 62
7
 10
-1.7956
 20
-11.8888
 30
0.0
 11
-1.8412
 21
-11.8871
 31
0.0
  0
POLYLINE
  8
0
  5
D09
  6
CONTINUOUS
 62
7
 10
0.0
 20
0.0
 30
0.0
 66
1
 70
0
  0
VERTEX
  8
0
  5
D0A
  6
CONTINUOUS
 62
7
 10
-1.7956
 20
-11.8888
 30
0.0
  0
VERTEX
  8
0
  5
D0B
  6
CONTINUOUS
 62
7
 10
-1.8466
 20
-11.8831
 30
0.0
  0
VERTEX
  8
0
  5
D0C
  6
CONTINUOUS
 62
7
 10
-1.8947
 20
-11.8748
 30
0.0
  0
VERTEX
  8
0
  5
D0D
  6
CONTINUOUS
 62
7
 10
-1.9373
 20
-11.86
 30
0.0
  0
VERTEX
  8
0
  5
D0E
  6
CONTINUOUS
 62
7
 10
-1.9834
 20
-11.8379
 30
0.0
  0
VERTEX
  8
0
  5
D0F
  6
CONTINUOUS
 62
7
 10
-2.0228
 20
-11.8083
 30
0.0
  0
VERTEX
  8
0
  5
D10
  6
CONTINUOUS
 62
7
 10
-2.0597
 20
-11.7771
 30
0.0
  0
VERTEX
  8
0
  5
D11
  6
CONTINUOUS
 62
7
 10
-2.091
 20
-11.7402
 30
0.0
  0
VERTEX
  8
0
  5
D12
  6
CONTINUOUS
 62
7
 10
-2.1195
 20
-11.7
 30
0.0
  0
VERTEX
  8
0
  5
D13
  6
CONTINUOUS
 62
7
 10
-2.1391
 20
-11.6573
 30
0.0
  0
VERTEX
  8
0
  5
D14
  6
CONTINUOUS
 62
7
 10
-2.1557
 20
-11.6115
 30
0.0
  0
VERTEX
  8
0
  5
D15
  6
CONTINUOUS
 62
7
 10
-2.1649
 20
-11.563
 30
0.0
  0
VERTEX
  8
0
  5
D16
  6
CONTINUOUS
 62
7
 10
-2.168
 20
-11.5154
 30
0.0
  0
SEQEND
  8
0
  5
D17
  0
LINE
  8
0
  5
D19
  6
CONTINUOUS
 62
7
 10
-4.8469
 20
-1.9651
 30
0.0
 11
-4.9152
 21
-1.9857
 31
0.0
  0
LINE
  8
0
  5
D1B
  6
CONTINUOUS
 62
7
 10
-4.8727
 20
-1.8799
 30
0.0
 11
-4.9386
 21
-1.8995
 31
0.0
  0
LINE
  8
0
  5
D1D
  6
CONTINUOUS
 62
7
 10
-5.7463
 20
-1.9651
 30
0.0
 11
-5.8207
 21
-1.9881
 31
0.0
  0
LINE
  8
0
  5
D1F
  6
CONTINUOUS
 62
7
 10
-5.772
 20
-1.8799
 30
0.0
 11
-5.846
 21
-1.8995
 31
0.0
  0
LINE
  8
0
  5
D21
  6
CONTINUOUS
 62
7
 10
-4.9036
 20
-1.6165
 30
0.0
 11
-4.943
 21
-1.628
 31
0.0
  0
LINE
  8
0
  5
D23
  6
CONTINUOUS
 62
7
 10
-4.9609
 20
-1.4286
 30
0.0
 11
-4.9977
 21
-1.4391
 31
0.0
  0
LINE
  8
0
  5
D25
  6
CONTINUOUS
 62
7
 10
-5.9228
 20
-1.628
 30
0.0
 11
-5.9395
 21
-1.6346
 31
0.0
  0
LINE
  8
0
  5
D27
  6
CONTINUOUS
 62
7
 10
-5.9771
 20
-1.4391
 30
0.0
 11
-5.9936
 21
-1.4433
 31
0.0
  0
LINE
  8
0
  5
D29
  6
CONTINUOUS
 62
7
 10
-6.3772
 20
-0.0427
 30
0.0
 11
-6.3001
 21
-0.0238
 31
0.0
  0
LINE
  8
0
  5
D2B
  6
CONTINUOUS
 62
7
 10
-6.3944
 20
-0.0427
 30
0.0
 11
-6.3772
 21
-0.0394
 31
0.0
  0
LINE
  8
0
  5
D2D
  6
CONTINUOUS
 62
7
 10
-4.1231
 20
-1.3292
 30
0.0
 11
-4.0861
 21
-1.3178
 31
0.0
  0
LINE
  8
0
  5
D2F
  6
CONTINUOUS
 62
7
 10
-3.0218
 20
-8.3498
 30
0.0
 11
-2.8629
 21
-8.3498
 31
0.0
  0
POLYLINE
  8
0
  5
D31
  6
CONTINUOUS
 62
7
 10
0.0
 20
0.0
 30
0.0
 66
1
 70
0
  0
VERTEX
  8
0
  5
D32
  6
CONTINUOUS
 62
7
 10
-1.8412
 20
-11.8871
 30
0.0
  0
VERTEX
  8
0
  5
D33
  6
CONTINUOUS
 62
7
 10
-1.8843
 20
-11.8772
 30
0.0
  0
VERTEX
  8
0
  5
D34
  6
CONTINUOUS
 62
7
 10
-1.9237
 20
-11.8659
 30
0.0
  0
VERTEX
  8
0
  5
D35
  6
CONTINUOUS
 62
7
 10
-1.9631
 20
-11.8495
 30
0.0
  0
VERTEX
  8
0
  5
D36
  6
CONTINUOUS
 62
7
 10
-2.0006
 20
-11.8264
 30
0.0
  0
VERTEX
  8
0
  5
D37
  6
CONTINUOUS
 62
7
 10
-2.0369
 20
-11.8002
 30
0.0
  0
VERTEX
  8
0
  5
D38
  6
CONTINUOUS
 62
7
 10
-2.0689
 20
-11.7714
 30
0.0
  0
VERTEX
  8
0
  5
D39
  6
CONTINUOUS
 62
7
 10
-2.0935
 20
-11.7377
 30
0.0
  0
VERTEX
  8
0
  5
D3A
  6
CONTINUOUS
 62
7
 10
-2.1195
 20
-11.7
 30
0.0
  0
VERTEX
  8
0
  5
D3B
  6
CONTINUOUS
 62
7
 10
-2.1391
 20
-11.6631
 30
0.0
  0
VERTEX
  8
0
  5
D3C
  6
CONTINUOUS
 62
7
 10
-2.1532
 20
-11.6204
 30
0.0
  0
VERTEX
  8
0
  5
D3D
  6
CONTINUOUS
 62
7
 10
-2.1619
 20
-11.5786
 30
0.0
  0
VERTEX
  8
0
  5
D3E
  6
CONTINUOUS
 62
7
 10
-2.168
 20
-11.5351
 30
0.0
  0
VERTEX
  8
0
  5
D3F
  6
CONTINUOUS
 62
7
 10
-2.168
 20
-11.5154
 30
0.0
  0
SEQEND
  8
0
  5
D40
  0
LINE
  8
0
  5
D42
  6
CONTINUOUS
 62
7
 10
-4.2025
 20
1.1881
 30
0.0
 11
-4.2793
 21
1.1684
 31
0.0
  0
POLYLINE
  8
0
  5
D44
  6
CONTINUOUS
 62
7
 10
0.0
 20
0.0
 30
0.0
 66
1
 70
0
  0
VERTEX
  8
0
  5
D45
  6
CONTINUOUS
 62
7
 10
-3.5734
 20
0.3734
 30
0.0
  0
VERTEX
  8
0
  5
D46
  6
CONTINUOUS
 62
7
 10
-3.6207
 20
0.3709
 30
0.0
  0
VERTEX
  8
0
  5
D47
  6
CONTINUOUS
 62
7
 10
-3.6694
 20
0.3619
 30
0.0
  0
VERTEX
  8
0
  5
D48
  6
CONTINUOUS
 62
7
 10
-3.7149
 20
0.3447
 30
0.0
  0
VERTEX
  8
0
  5
D49
  6
CONTINUOUS
 62
7
 10
-3.7598
 20
0.3241
 30
0.0
  0
VERTEX
  8
0
  5
D4A
  6
CONTINUOUS
 62
7
 10
-3.7999
 20
0.2962
 30
0.0
  0
VERTEX
  8
0
  5
D4B
  6
CONTINUOUS
 62
7
 10
-3.8362
 20
0.265
 30
0.0
  0
VERTEX
  8
0
  5
D4C
  6
CONTINUOUS
 62
7
 10
-3.8681
 20
0.2281
 30
0.0
  0
VERTEX
  8
0
  5
D4D
  6
CONTINUOUS
 62
7
 10
-3.8965
 20
0.1846
 30
0.0
  0
VERTEX
  8
0
  5
D4E
  6
CONTINUOUS
 62
7
 10
-3.9167
 20
0.1428
 30
0.0
  0
VERTEX
  8
0
  5
D4F
  6
CONTINUOUS
 62
7
 10
-3.9334
 20
0.0968
 30
0.0
  0
VERTEX
  8
0
  5
D50
  6
CONTINUOUS
 62
7
 10
-3.9414
 20
0.0509
 30
0.0
  0
SEQEND
  8
0
  5
D51
  0
POLYLINE
  8
0
  5
D53
  6
CONTINUOUS
 62
7
 10
0.0
 20
0.0
 30
0.0
 66
1
 70
0
  0
VERTEX
  8
0
  5
D54
  6
CONTINUOUS
 62
7
 10
-5.3462
 20
0.3734
 30
0.0
  0
VERTEX
  8
0
  5
D55
  6
CONTINUOUS
 62
7
 10
-5.3948
 20
0.3709
 30
0.0
  0
VERTEX
  8
0
  5
D56
  6
CONTINUOUS
 62
7
 10
-5.4427
 20
0.3619
 30
0.0
  0
VERTEX
  8
0
  5
D57
  6
CONTINUOUS
 62
7
 10
-5.4914
 20
0.3447
 30
0.0
  0
VERTEX
  8
0
  5
D58
  6
CONTINUOUS
 62
7
 10
-5.5339
 20
0.3241
 30
0.0
  0
VERTEX
  8
0
  5
D59
  6
CONTINUOUS
 62
7
 10
-5.5739
 20
0.2962
 30
0.0
  0
VERTEX
  8
0
  5
D5A
  6
CONTINUOUS
 62
7
 10
-5.6102
 20
0.265
 30
0.0
  0
VERTEX
  8
0
  5
D5B
  6
CONTINUOUS
 62
7
 10
-5.6422
 20
0.2281
 30
0.0
  0
VERTEX
  8
0
  5
D5C
  6
CONTINUOUS
 62
7
 10
-5.6699
 20
0.1846
 30
0.0
  0
VERTEX
  8
0
  5
D5D
  6
CONTINUOUS
 62
7
 10
-5.6928
 20
0.1428
 30
0.0
  0
VERTEX
  8
0
  5
D5E
  6
CONTINUOUS
 62
7
 10
-5.7068
 20
0.0968
 30
0.0
  0
VERTEX
  8
0
  5
D5F
  6
CONTINUOUS
 62
7
 10
-5.7161
 20
0.0509
 30
0.0
  0
VERTEX
  8
0
  5
D60
  6
CONTINUOUS
 62
7
 10
-5.7217
 20
0.0
 30
0.0
  0
SEQEND
  8
0
  5
D61
  0
POLYLINE
  8
0
  5
D63
  6
CONTINUOUS
 62
7
 210
0.0
 220
0.0
 230
1.0
 10
0.0
 20
0.0
 30
0.0
 66
1
 70
0
  0
VERTEX
  8
0
  5
D64
  6
CONTINUOUS
 62
7
 10
4.2418
 20
-0.3931
 30
0.0
  0
VERTEX
  8
0
  5
D65
  6
CONTINUOUS
 62
7
 10
4.2762
 20
-0.3914
 30
0.0
  0
VERTEX
  8
0
  5
D66
  6
CONTINUOUS
 62
7
 10
4.307
 20
-0.3857
 30
0.0
  0
VERTEX
  8
0
  5
D67
  6
CONTINUOUS
 62
7
 10
4.3384
 20
-0.3767
 30
0.0
  0
VERTEX
  8
0
  5
D68
  6
CONTINUOUS
 62
7
 10
4.3666
 20
-0.3618
 30
0.0
  0
VERTEX
  8
0
  5
D69
  6
CONTINUOUS
 62
7
 10
4.395
 20
-0.3454
 30
0.0
  0
VERTEX
  8
0
  5
D6A
  6
CONTINUOUS
 62
7
 10
4.4233
 20
-0.3257
 30
0.0
  0
VERTEX
  8
0
  5
D6B
  6
CONTINUOUS
 62
7
 10
4.4491
 20
-0.3028
 30
0.0
  0
VERTEX
  8
0
  5
D6C
  6
CONTINUOUS
 62
7
 10
4.4719
 20
-0.2773
 30
0.0
  0
VERTEX
  8
0
  5
D6D
  6
CONTINUOUS
 62
7
 10
4.4916
 20
-0.247
 30
0.0
  0
VERTEX
  8
0
  5
D6E
  6
CONTINUOUS
 62
7
 10
4.5083
 20
-0.2167
 30
0.0
  0
VERTEX
  8
0
  5
D6F
  6
CONTINUOUS
 62
7
 10
4.523
 20
-0.183
 30
0.0
  0
VERTEX
  8
0
  5
D70
  6
CONTINUOUS
 62
7
 10
4.5341
 20
-0.1485
 30
0.0
  0
VERTEX
  8
0
  5
D71
  6
CONTINUOUS
 62
7
 10
4.5422
 20
-0.114
 30
0.0
  0
VERTEX
  8
0
  5
D72
  6
CONTINUOUS
 62
7
 10
4.5483
 20
-0.0764
 30
0.0
  0
VERTEX
  8
0
  5
D73
  6
CONTINUOUS
 62
7
 10
4.5513
 20
-0.0394
 30
0.0
  0
SEQEND
  8
0
  5
D74
  0
POLYLINE
  8
0
  5
D76
  6
CONTINUOUS
 62
7
 210
0.0
 220
0.0
 230
1.0
 10
0.0
 20
0.0
 30
0.0
 66
1
 70
0
  0
VERTEX
  8
0
  5
D77
  6
CONTINUOUS
 62
7
 10
-1.9711
 20
-0.3931
 30
0.0
  0
VERTEX
  8
0
  5
D78
  6
CONTINUOUS
 62
7
 10
-1.9373
 20
-0.3914
 30
0.0
  0
VERTEX
  8
0
  5
D79
  6
CONTINUOUS
 62
7
 10
-1.9071
 20
-0.3857
 30
0.0
  0
VERTEX
  8
0
  5
D7A
  6
CONTINUOUS
 62
7
 10
-1.8751
 20
-0.3767
 30
0.0
  0
VERTEX
  8
0
  5
D7B
  6
CONTINUOUS
 62
7
 10
-1.8466
 20
-0.3618
 30
0.0
  0
VERTEX
  8
0
  5
D7C
  6
CONTINUOUS
 62
7
 10
-1.8159
 20
-0.3454
 30
0.0
  0
VERTEX
  8
0
  5
D7D
  6
CONTINUOUS
 62
7
 10
-1.7902
 20
-0.3257
 30
0.0
  0
VERTEX
  8
0
  5
D7E
  6
CONTINUOUS
 62
7
 10
-1.7649
 20
-0.3028
 30
0.0
  0
VERTEX
  8
0
  5
D7F
  6
CONTINUOUS
 62
7
 10
-1.7421
 20
-0.2773
 30
0.0
  0
VERTEX
  8
0
  5
D80
  6
CONTINUOUS
 62
7
 10
-1.7217
 20
-0.247
 30
0.0
  0
VERTEX
  8
0
  5
D81
  6
CONTINUOUS
 62
7
 10
-1.7051
 20
-0.2167
 30
0.0
  0
VERTEX
  8
0
  5
D82
  6
CONTINUOUS
 62
7
 10
-1.6904
 20
-0.183
 30
0.0
  0
VERTEX
  8
0
  5
D83
  6
CONTINUOUS
 62
7
 10
-1.6762
 20
-0.1485
 30
0.0
  0
VERTEX
  8
0
  5
D84
  6
CONTINUOUS
 62
7
 10
-1.6706
 20
-0.114
 30
0.0
  0
VERTEX
  8
0
  5
D85
  6
CONTINUOUS
 62
7
 10
-1.6658
 20
-0.0764
 30
0.0
  0
VERTEX
  8
0
  5
D86
  6
CONTINUOUS
 62
7
 10
-1.662
 20
-0.0394
 30
0.0
  0
SEQEND
  8
0
  5
D87
  0
POLYLINE
  8
0
  5
D89
  6
CONTINUOUS
 62
7
 10
0.0
 20
0.0
 30
0.0
 66
1
 70
0
  0
VERTEX
  8
0
  5
D8A
  6
CONTINUOUS
 62
7
 10
-2.778
 20
0.394
 30
0.0
  0
VERTEX
  8
0
  5
D8B
  6
CONTINUOUS
 62
7
 10
-2.8143
 20
0.3906
 30
0.0
  0
VERTEX
  8
0
  5
D8C
  6
CONTINUOUS
 62
7
 10
-2.8489
 20
0.3848
 30
0.0
  0
VERTEX
  8
0
  5
D8D
  6
CONTINUOUS
 62
7
 10
-2.8864
 20
0.3767
 30
0.0
  0
VERTEX
  8
0
  5
D8E
  6
CONTINUOUS
 62
7
 10
-2.9203
 20
0.3619
 30
0.0
  0
VERTEX
  8
0
  5
D8F
  6
CONTINUOUS
 62
7
 10
-2.9536
 20
0.3447
 30
0.0
  0
VERTEX
  8
0
  5
D90
  6
CONTINUOUS
 62
7
 10
-2.9825
 20
0.3241
 30
0.0
  0
VERTEX
  8
0
  5
D91
  6
CONTINUOUS
 62
7
 10
-3.0132
 20
0.3019
 30
0.0
  0
VERTEX
  8
0
  5
D92
  6
CONTINUOUS
 62
7
 10
-3.0391
 20
0.2766
 30
0.0
  0
VERTEX
  8
0
  5
D93
  6
CONTINUOUS
 62
7
 10
-3.0612
 20
0.2478
 30
0.0
  0
VERTEX
  8
0
  5
D94
  6
CONTINUOUS
 62
7
 10
-3.0815
 20
0.2166
 30
0.0
  0
VERTEX
  8
0
  5
D95
  6
CONTINUOUS
 62
7
 10
-3.0987
 20
0.183
 30
0.0
  0
VERTEX
  8
0
  5
D96
  6
CONTINUOUS
 62
7
 10
-3.1098
 20
0.1469
 30
0.0
  0
VERTEX
  8
0
  5
D97
  6
CONTINUOUS
 62
7
 10
-3.1215
 20
0.114
 30
0.0
  0
VERTEX
  8
0
  5
D98
  6
CONTINUOUS
 62
7
 10
-3.1272
 20
0.0763
 30
0.0
  0
VERTEX
  8
0
  5
D99
  6
CONTINUOUS
 62
7
 10
-3.1301
 20
0.0402
 30
0.0
  0
SEQEND
  8
0
  5
D9A
  0
LINE
  8
0
  5
D9C
  6
CONTINUOUS
 62
7
 10
-1.2989
 20
-1.8913
 30
0.0
 11
-1.4244
 21
-1.8913
 31
0.0
  0
LINE
  8
0
  5
D9E
  6
CONTINUOUS
 62
7
 10
-4.2025
 20
-1.3292
 30
0.0
 11
-4.1231
 21
-1.3292
 31
0.0
  0
LINE
  8
0
  5
DA0
  6
CONTINUOUS
 62
7
 10
-4.1432
 20
-1.2038
 30
0.0
 11
-4.1821
 21
-1.2038
 31
0.0
  0
LINE
  8
0
  5
DA2
  6
CONTINUOUS
 62
7
 10
-1.4244
 20
-0.9501
 30
0.0
 11
-1.2989
 21
-0.9501
 31
0.0
  0
LINE
  8
0
  5
DA4
  6
CONTINUOUS
 62
7
 10
-0.2008
 20
-0.5185
 30
0.0
 11
-1.2989
 21
-0.5185
 31
0.0
  0
LINE
  8
0
  5
DA6
  6
CONTINUOUS
 62
7
 10
-1.4325
 20
-0.4342
 30
0.0
 11
-2.4093
 21
-0.4342
 31
0.0
  0
LINE
  8
0
  5
DA8
  6
CONTINUOUS
 62
7
 10
5.6747
 20
-0.3931
 30
0.0
 11
-3.3542
 21
-0.3931
 31
0.0
  0
POLYLINE
  8
0
  5
DAA
  6
CONTINUOUS
 62
7
 10
0.0
 20
0.0
 30
0.0
 66
1
 70
0
  0
VERTEX
  8
0
  5
DAB
  6
CONTINUOUS
 62
7
 10
-3.5734
 20
0.3734
 30
0.0
  0
VERTEX
  8
0
  5
DAC
  6
CONTINUOUS
 62
7
 10
-3.5899
 20
0.3734
 30
0.0
  0
VERTEX
  8
0
  5
DAD
  6
CONTINUOUS
 62
7
 10
-3.6177
 20
0.3709
 30
0.0
  0
VERTEX
  8
0
  5
DAE
  6
CONTINUOUS
 62
7
 10
-3.646
 20
0.3676
 30
0.0
  0
VERTEX
  8
0
  5
DAF
  6
CONTINUOUS
 62
7
 10
-3.6774
 20
0.3593
 30
0.0
  0
VERTEX
  8
0
  5
DB0
  6
CONTINUOUS
 62
7
 10
-3.7056
 20
0.3512
 30
0.0
  0
VERTEX
  8
0
  5
DB1
  6
CONTINUOUS
 62
7
 10
-3.7321
 20
0.3396
 30
0.0
  0
VERTEX
  8
0
  5
DB2
  6
CONTINUOUS
 62
7
 10
-3.7598
 20
0.3241
 30
0.0
  0
VERTEX
  8
0
  5
DB3
  6
CONTINUOUS
 62
7
 10
-3.7857
 20
0.3084
 30
0.0
  0
VERTEX
  8
0
  5
DB4
  6
CONTINUOUS
 62
7
 10
-3.8085
 20
0.2913
 30
0.0
  0
VERTEX
  8
0
  5
DB5
  6
CONTINUOUS
 62
7
 10
-3.8306
 20
0.2715
 30
0.0
  0
VERTEX
  8
0
  5
DB6
  6
CONTINUOUS
 62
7
 10
-3.851
 20
0.2478
 30
0.0
  0
VERTEX
  8
0
  5
DB7
  6
CONTINUOUS
 62
7
 10
-3.8706
 20
0.2256
 30
0.0
  0
VERTEX
  8
0
  5
DB8
  6
CONTINUOUS
 62
7
 10
-3.8878
 20
0.2002
 30
0.0
  0
VERTEX
  8
0
  5
DB9
  6
CONTINUOUS
 62
7
 10
-3.902
 20
0.174
 30
0.0
  0
VERTEX
  8
0
  5
DBA
  6
CONTINUOUS
 62
7
 10
-3.9167
 20
0.1452
 30
0.0
  0
VERTEX
  8
0
  5
DBB
  6
CONTINUOUS
 62
7
 10
-3.9273
 20
0.1173
 30
0.0
  0
VERTEX
  8
0
  5
DBC
  6
CONTINUOUS
 62
7
 10
-3.9365
 20
0.0886
 30
0.0
  0
VERTEX
  8
0
  5
DBD
  6
CONTINUOUS
 62
7
 10
-3.9414
 20
0.0599
 30
0.0
  0
VERTEX
  8
0
  5
DBE
  6
CONTINUOUS
 62
7
 10
-3.9446
 20
0.0311
 30
0.0
  0
VERTEX
  8
0
  5
DBF
  6
CONTINUOUS
 62
7
 10
-3.9446
 20
0.0
 30
0.0
  0
SEQEND
  8
0
  5
DC0
  0
LINE
  8
0
  5
DC2
  6
CONTINUOUS
 62
7
 10
-5.3462
 20
-0.3734
 30
0.0
 11
-5.2821
 21
-0.3734
 31
0.0
  0
LINE
  8
0
  5
DC4
  6
CONTINUOUS
 62
7
 10
-3.5734
 20
-0.3734
 30
0.0
 11
-3.4651
 21
-0.3734
 31
0.0
  0
LINE
  8
0
  5
DC6
  6
CONTINUOUS
 62
7
 10
-5.2759
 20
-0.3734
 30
0.0
 11
-3.641
 21
-0.3734
 31
0.0
  0
LINE
  8
0
  5
DC8
  6
CONTINUOUS
 62
7
 10
6.0268
 20
-0.0394
 30
0.0
 11
-3.7056
 21
-0.0394
 31
0.0
  0
LINE
  8
0
  5
DCA
  6
CONTINUOUS
 62
7
 10
-5.7217
 20
0.0
 30
0.0
 11
-6.2947
 21
0.0
 31
0.0
  0
LINE
  8
0
  5
DCC
  6
CONTINUOUS
 62
7
 10
-3.7056
 20
0.0402
 30
0.0
 11
6.0268
 21
0.0402
 31
0.0
  0
LINE
  8
0
  5
DCE
  6
CONTINUOUS
 62
7
 10
-5.3462
 20
0.3734
 30
0.0
 11
-5.2821
 21
0.3734
 31
0.0
  0
LINE
  8
0
  5
DD0
  6
CONTINUOUS
 62
7
 10
-5.2759
 20
0.3734
 30
0.0
 11
-3.4651
 21
0.3734
 31
0.0
  0
LINE
  8
0
  5
DD2
  6
CONTINUOUS
 62
7
 10
-3.3542
 20
0.394
 30
0.0
 11
5.6747
 21
0.394
 31
0.0
  0
LINE
  8
0
  5
DD4
  6
CONTINUOUS
 62
7
 10
-1.4244
 20
0.4332
 30
0.0
 11
-1.2397
 21
0.4332
 31
0.0
  0
LINE
  8
0
  5
DD6
  6
CONTINUOUS
 62
7
 10
-2.168
 20
0.4422
 30
0.0
 11
-2.301
 21
0.4422
 31
0.0
  0
LINE
  8
0
  5
DD8
  6
CONTINUOUS
 62
7
 10
-4.2025
 20
1.0865
 30
0.0
 11
-4.1631
 21
1.0865
 31
0.0
  0
LINE
  8
0
  5
DDA
  6
CONTINUOUS
 62
7
 10
-4.1631
 20
1.1881
 30
0.0
 11
-4.2025
 21
1.1881
 31
0.0
  0
POLYLINE
  8
0
  5
DDC
  6
CONTINUOUS
 62
7
 10
0.0
 20
0.0
 30
0.0
 66
1
 70
0
  0
VERTEX
  8
0
  5
DDD
  6
CONTINUOUS
 62
7
 10
-3.3542
 20
-0.3931
 30
0.0
  0
VERTEX
  8
0
  5
DDE
  6
CONTINUOUS
 62
7
 10
-3.3763
 20
-0.3931
 30
0.0
  0
VERTEX
  8
0
  5
DDF
  6
CONTINUOUS
 62
7
 10
-3.3991
 20
-0.3914
 30
0.0
  0
VERTEX
  8
0
  5
DE0
  6
CONTINUOUS
 62
7
 10
-3.4226
 20
-0.3857
 30
0.0
  0
VERTEX
  8
0
  5
DE1
  6
CONTINUOUS
 62
7
 10
-3.4447
 20
-0.3823
 30
0.0
  0
VERTEX
  8
0
  5
DE2
  6
CONTINUOUS
 62
7
 10
-3.4651
 20
-0.3734
 30
0.0
  0
VERTEX
  8
0
  5
DE3
  6
CONTINUOUS
 62
7
 10
-3.4872
 20
-0.3651
 30
0.0
  0
VERTEX
  8
0
  5
DE4
  6
CONTINUOUS
 62
7
 10
-3.5074
 20
-0.3578
 30
0.0
  0
VERTEX
  8
0
  5
DE5
  6
CONTINUOUS
 62
7
 10
-3.5295
 20
-0.3454
 30
0.0
  0
VERTEX
  8
0
  5
DE6
  6
CONTINUOUS
 62
7
 10
-3.5474
 20
-0.334
 30
0.0
  0
VERTEX
  8
0
  5
DE7
  6
CONTINUOUS
 62
7
 10
-3.5673
 20
-0.3201
 30
0.0
  0
VERTEX
  8
0
  5
DE8
  6
CONTINUOUS
 62
7
 10
-3.5838
 20
-0.3052
 30
0.0
  0
VERTEX
  8
0
  5
DE9
  6
CONTINUOUS
 62
7
 10
-3.601
 20
-0.2913
 30
0.0
  0
VERTEX
  8
0
  5
DEA
  6
CONTINUOUS
 62
7
 10
-3.6177
 20
-0.2733
 30
0.0
  0
VERTEX
  8
0
  5
DEB
  6
CONTINUOUS
 62
7
 10
-3.6324
 20
-0.2536
 30
0.0
  0
VERTEX
  8
0
  5
DEC
  6
CONTINUOUS
 62
7
 10
-3.646
 20
-0.2371
 30
0.0
  0
VERTEX
  8
0
  5
DED
  6
CONTINUOUS
 62
7
 10
-3.6577
 20
-0.2167
 30
0.0
  0
VERTEX
  8
0
  5
DEE
  6
CONTINUOUS
 62
7
 10
-3.6694
 20
-0.197
 30
0.0
  0
VERTEX
  8
0
  5
DEF
  6
CONTINUOUS
 62
7
 10
-3.6774
 20
-0.1747
 30
0.0
  0
VERTEX
  8
0
  5
DF0
  6
CONTINUOUS
 62
7
 10
-3.686
 20
-0.1534
 30
0.0
  0
VERTEX
  8
0
  5
DF1
  6
CONTINUOUS
 62
7
 10
-3.6921
 20
-0.1313
 30
0.0
  0
VERTEX
  8
0
  5
DF2
  6
CONTINUOUS
 62
7
 10
-3.697
 20
-0.1082
 30
0.0
  0
VERTEX
  8
0
  5
DF3
  6
CONTINUOUS
 62
7
 10
-3.7002
 20
-0.0861
 30
0.0
  0
VERTEX
  8
0
  5
DF4
  6
CONTINUOUS
 62
7
 10
-3.7031
 20
-0.0624
 30
0.0
  0
VERTEX
  8
0
  5
DF5
  6
CONTINUOUS
 62
7
 10
-3.7056
 20
-0.0394
 30
0.0
  0
SEQEND
  8
0
  5
DF6
  0
POLYLINE
  8
0
  5
DF8
  6
CONTINUOUS
 62
7
 10
0.0
 20
0.0
 30
0.0
 66
1
 70
0
  0
VERTEX
  8
0
  5
DF9
  6
CONTINUOUS
 62
7
 10
-2.778
 20
-0.3931
 30
0.0
  0
VERTEX
  8
0
  5
DFA
  6
CONTINUOUS
 62
7
 10
-2.8143
 20
-0.3914
 30
0.0
  0
VERTEX
  8
0
  5
DFB
  6
CONTINUOUS
 62
7
 10
-2.8489
 20
-0.3857
 30
0.0
  0
VERTEX
  8
0
  5
DFC
  6
CONTINUOUS
 62
7
 10
-2.8864
 20
-0.3767
 30
0.0
  0
VERTEX
  8
0
  5
DFD
  6
CONTINUOUS
 62
7
 10
-2.9203
 20
-0.3618
 30
0.0
  0
VERTEX
  8
0
  5
DFE
  6
CONTINUOUS
 62
7
 10
-2.9536
 20
-0.3454
 30
0.0
  0
VERTEX
  8
0
  5
DFF
  6
CONTINUOUS
 62
7
 10
-2.9825
 20
-0.3257
 30
0.0
  0
VERTEX
  8
0
  5
E00
  6
CONTINUOUS
 62
7
 10
-3.0132
 20
-0.3028
 30
0.0
  0
VERTEX
  8
0
  5
E01
  6
CONTINUOUS
 62
7
 10
-3.0391
 20
-0.2773
 30
0.0
  0
VERTEX
  8
0
  5
E02
  6
CONTINUOUS
 62
7
 10
-3.0612
 20
-0.247
 30
0.0
  0
VERTEX
  8
0
  5
E03
  6
CONTINUOUS
 62
7
 10
-3.0815
 20
-0.2167
 30
0.0
  0
VERTEX
  8
0
  5
E04
  6
CONTINUOUS
 62
7
 10
-3.0987
 20
-0.183
 30
0.0
  0
VERTEX
  8
0
  5
E05
  6
CONTINUOUS
 62
7
 10
-3.1098
 20
-0.1485
 30
0.0
  0
VERTEX
  8
0
  5
E06
  6
CONTINUOUS
 62
7
 10
-3.1215
 20
-0.114
 30
0.0
  0
VERTEX
  8
0
  5
E07
  6
CONTINUOUS
 62
7
 10
-3.1272
 20
-0.0764
 30
0.0
  0
VERTEX
  8
0
  5
E08
  6
CONTINUOUS
 62
7
 10
-3.1301
 20
-0.0394
 30
0.0
  0
SEQEND
  8
0
  5
E09
  0
POLYLINE
  8
0
  5
E0B
  6
CONTINUOUS
 62
7
 10
0.0
 20
0.0
 30
0.0
 66
1
 70
0
  0
VERTEX
  8
0
  5
E0C
  6
CONTINUOUS
 62
7
 10
-1.9711
 20
0.394
 30
0.0
  0
VERTEX
  8
0
  5
E0D
  6
CONTINUOUS
 62
7
 10
-1.9373
 20
0.3906
 30
0.0
  0
VERTEX
  8
0
  5
E0E
  6
CONTINUOUS
 62
7
 10
-1.9071
 20
0.3848
 30
0.0
  0
VERTEX
  8
0
  5
E0F
  6
CONTINUOUS
 62
7
 10
-1.8751
 20
0.3767
 30
0.0
  0
VERTEX
  8
0
  5
E10
  6
CONTINUOUS
 62
7
 10
-1.8466
 20
0.3619
 30
0.0
  0
VERTEX
  8
0
  5
E11
  6
CONTINUOUS
 62
7
 10
-1.8159
 20
0.3447
 30
0.0
  0
VERTEX
  8
0
  5
E12
  6
CONTINUOUS
 62
7
 10
-1.7902
 20
0.3241
 30
0.0
  0
VERTEX
  8
0
  5
E13
  6
CONTINUOUS
 62
7
 10
-1.7649
 20
0.3019
 30
0.0
  0
VERTEX
  8
0
  5
E14
  6
CONTINUOUS
 62
7
 10
-1.7421
 20
0.2766
 30
0.0
  0
VERTEX
  8
0
  5
E15
  6
CONTINUOUS
 62
7
 10
-1.7217
 20
0.2478
 30
0.0
  0
VERTEX
  8
0
  5
E16
  6
CONTINUOUS
 62
7
 10
-1.7051
 20
0.2166
 30
0.0
  0
VERTEX
  8
0
  5
E17
  6
CONTINUOUS
 62
7
 10
-1.6904
 20
0.183
 30
0.0
  0
VERTEX
  8
0
  5
E18
  6
CONTINUOUS
 62
7
 10
-1.6762
 20
0.1469
 30
0.0
  0
VERTEX
  8
0
  5
E19
  6
CONTINUOUS
 62
7
 10
-1.6706
 20
0.114
 30
0.0
  0
VERTEX
  8
0
  5
E1A
  6
CONTINUOUS
 62
7
 10
-1.6658
 20
0.0763
 30
0.0
  0
VERTEX
  8
0
  5
E1B
  6
CONTINUOUS
 62
7
 10
-1.662
 20
0.0402
 30
0.0
  0
SEQEND
  8
0
  5
E1C
  0
POLYLINE
  8
0
  5
E1E
  6
CONTINUOUS
 62
7
 210
0.0
 220
0.0
 230
1.0
 10
0.0
 20
0.0
 30
0.0
 66
1
 70
0
  0
VERTEX
  8
0
  5
E1F
  6
CONTINUOUS
 62
7
 10
4.2418
 20
0.394
 30
0.0
  0
VERTEX
  8
0
  5
E20
  6
CONTINUOUS
 62
7
 10
4.2762
 20
0.3906
 30
0.0
  0
VERTEX
  8
0
  5
E21
  6
CONTINUOUS
 62
7
 10
4.307
 20
0.3848
 30
0.0
  0
VERTEX
  8
0
  5
E22
  6
CONTINUOUS
 62
7
 10
4.3384
 20
0.3767
 30
0.0
  0
VERTEX
  8
0
  5
E23
  6
CONTINUOUS
 62
7
 10
4.3666
 20
0.3619
 30
0.0
  0
VERTEX
  8
0
  5
E24
  6
CONTINUOUS
 62
7
 10
4.395
 20
0.3447
 30
0.0
  0
VERTEX
  8
0
  5
E25
  6
CONTINUOUS
 62
7
 10
4.4233
 20
0.3241
 30
0.0
  0
VERTEX
  8
0
  5
E26
  6
CONTINUOUS
 62
7
 10
4.4491
 20
0.3019
 30
0.0
  0
VERTEX
  8
0
  5
E27
  6
CONTINUOUS
 62
7
 10
4.4719
 20
0.2766
 30
0.0
  0
VERTEX
  8
0
  5
E28
  6
CONTINUOUS
 62
7
 10
4.4916
 20
0.2478
 30
0.0
  0
VERTEX
  8
0
  5
E29
  6
CONTINUOUS
 62
7
 10
4.5083
 20
0.2166
 30
0.0
  0
VERTEX
  8
0
  5
E2A
  6
CONTINUOUS
 62
7
 10
4.523
 20
0.183
 30
0.0
  0
VERTEX
  8
0
  5
E2B
  6
CONTINUOUS
 62
7
 10
4.5341
 20
0.1469
 30
0.0
  0
VERTEX
  8
0
  5
E2C
  6
CONTINUOUS
 62
7
 10
4.5422
 20
0.114
 30
0.0
  0
VERTEX
  8
0
  5
E2D
  6
CONTINUOUS
 62
7
 10
4.5483
 20
0.0763
 30
0.0
  0
VERTEX
  8
0
  5
E2E
  6
CONTINUOUS
 62
7
 10
4.5513
 20
0.0402
 30
0.0
  0
SEQEND
  8
0
  5
E2F
  0
LINE
  8
0
  5
E31
  6
CONTINUOUS
 62
7
 10
-5.2821
 20
-0.3767
 30
0.0
 11
-2.168
 21
-10.6399
 31
0.0
  0
LINE
  8
0
  5
E33
  6
CONTINUOUS
 62
7
 10
-3.0218
 20
-8.3498
 30
0.0
 11
-2.168
 21
-11.2077
 31
0.0
  0
LINE
  8
0
  5
E35
  6
CONTINUOUS
 62
3
 10
-5.9395
 20
-1.6346
 30
0.0
 11
-6.3944
 21
-0.0427
 31
0.0
  0
LINE
  8
0
  5
E37
  6
CONTINUOUS
 62
3
 10
-5.8207
 20
-1.9881
 30
0.0
 11
-6.3772
 21
-0.0427
 31
0.0
  0
LINE
  8
0
  5
E39
  6
CONTINUOUS
 62
7
 10
-5.7463
 20
-1.9651
 30
0.0
 11
-6.3001
 21
-0.0238
 31
0.0
  0
LINE
  8
0
  5
E3B
  6
CONTINUOUS
 62
7
 10
-6.2947
 20
0.0
 30
0.0
 11
-3.3826
 21
-10.1976
 31
0.0
  0
LINE
  8
0
  5
E3D
  6
CONTINUOUS
 62
7
 10
-5.3751
 20
-0.3734
 30
0.0
 11
-2.6304
 21
-9.9809
 31
0.0
  0
LINE
  8
0
  5
E3F
  6
CONTINUOUS
 62
7
 10
-4.8469
 20
-1.9651
 30
0.0
 11
-5.3012
 21
-0.3734
 31
0.0
  0
LINE
  8
0
  5
E41
  6
CONTINUOUS
 62
7
 10
-4.2793
 20
-1.3064
 30
0.0
 11
-4.2025
 21
-1.3292
 31
0.0
  0
LINE
  8
0
  5
E43
  6
CONTINUOUS
 62
7
 10
-4.1261
 20
1.1808
 30
0.0
 11
-4.1631
 21
1.1881
 31
0.0
  0
LINE
  8
0
  5
E45
  6
CONTINUOUS
 62
7
 10
-6.3944
 20
0.0427
 30
0.0
 11
-6.3772
 21
0.0402
 31
0.0
  0
LINE
  8
0
  5
E47
  6
CONTINUOUS
 62
7
 10
-6.3772
 20
0.0427
 30
0.0
 11
-6.3001
 21
0.023
 31
0.0
  0
LINE
  8
0
  5
E49
  6
CONTINUOUS
 62
7
 10
-5.9771
 20
1.44
 30
0.0
 11
-5.9936
 21
1.4433
 31
0.0
  0
LINE
  8
0
  5
E4B
  6
CONTINUOUS
 62
7
 10
-4.1821
 20
-1.2038
 30
0.0
 11
-4.2393
 21
-1.1841
 31
0.0
  0
LINE
  8
0
  5
E4D
  6
CONTINUOUS
 62
7
 10
-4.3963
 20
-1.1413
 30
0.0
 11
-4.3563
 21
-1.2234
 31
0.0
  0
LINE
  8
0
  5
E4F
  6
CONTINUOUS
 62
7
 10
-4.3963
 20
0.6695
 30
0.0
 11
-4.3563
 21
0.5876
 31
0.0
  0
LINE
  8
0
  5
E51
  6
CONTINUOUS
 62
7
 10
-1.0262
 20
-2.1047
 30
0.0
 11
-1.2989
 21
-1.2726
 31
0.0
  0
LINE
  8
0
  5
E53
  6
CONTINUOUS
 62
7
 10
-4.2793
 20
-1.1216
 30
0.0
 11
-4.2985
 21
-1.0576
 31
0.0
  0
POLYLINE
  8
0
  5
E55
  6
CONTINUOUS
 62
7
 10
0.0
 20
0.0
 30
0.0
 66
1
 70
0
  0
VERTEX
  8
0
  5
E56
  6
CONTINUOUS
 62
7
 10
-1.8843
 20
11.8773
 30
0.0
  0
VERTEX
  8
0
  5
E57
  6
CONTINUOUS
 62
7
 10
-1.8412
 20
11.8854
 30
0.0
  0
VERTEX
  8
0
  5
E58
  6
CONTINUOUS
 62
7
 10
-1.7956
 20
11.8887
 30
0.0
  0
SEQEND
  8
0
  5
E59
  0
LINE
  8
0
  5
E5B
  6
CONTINUOUS
 62
7
 10
-2.8629
 20
8.3499
 30
0.0
 11
-3.0218
 21
8.3499
 31
0.0
  0
LINE
  8
0
  5
E5D
  6
CONTINUOUS
 62
7
 10
-5.9228
 20
1.6288
 30
0.0
 11
-5.9395
 21
1.6304
 31
0.0
  0
LINE
  8
0
  5
E5F
  6
CONTINUOUS
 62
7
 10
-4.9609
 20
1.4277
 30
0.0
 11
-4.9977
 21
1.4376
 31
0.0
  0
LINE
  8
0
  5
E61
  6
CONTINUOUS
 62
7
 10
-4.9036
 20
1.6164
 30
0.0
 11
-4.943
 21
1.6288
 31
0.0
  0
LINE
  8
0
  5
E63
  6
CONTINUOUS
 62
7
 10
-5.772
 20
1.8798
 30
0.0
 11
-5.846
 21
1.8996
 31
0.0
  0
LINE
  8
0
  5
E65
  6
CONTINUOUS
 62
7
 10
-5.7463
 20
1.9643
 30
0.0
 11
-5.8207
 21
1.9882
 31
0.0
  0
LINE
  8
0
  5
E67
  6
CONTINUOUS
 62
7
 10
-4.8727
 20
1.8798
 30
0.0
 11
-4.9386
 21
1.8954
 31
0.0
  0
LINE
  8
0
  5
E69
  6
CONTINUOUS
 62
7
 10
-4.8469
 20
1.9643
 30
0.0
 11
-4.9152
 21
1.984
 31
0.0
  0
LINE
  8
0
  5
E6B
  6
CONTINUOUS
 62
7
 10
0.4468
 20
2.2615
 30
0.0
 11
-0.3024
 21
2.487
 31
0.0
  0
POLYLINE
  8
0
  5
E6D
  6
CONTINUOUS
 62
7
 210
0.0
 220
0.0
 230
1.0
 10
0.0
 20
0.0
 30
0.0
 66
1
 70
0
  0
VERTEX
  8
0
  5
E6E
  6
CONTINUOUS
 62
7
 10
0.2763
 20
0.6695
 30
0.0
  0
VERTEX
  8
0
  5
E6F
  6
CONTINUOUS
 62
7
 10
0.2307
 20
0.6835
 30
0.0
  0
VERTEX
  8
0
  5
E70
  6
CONTINUOUS
 62
7
 10
0.1884
 20
0.6934
 30
0.0
  0
VERTEX
  8
0
  5
E71
  6
CONTINUOUS
 62
7
 10
0.1428
 20
0.6958
 30
0.0
  0
VERTEX
  8
0
  5
E72
  6
CONTINUOUS
 62
7
 10
0.0978
 20
0.6893
 30
0.0
  0
VERTEX
  8
0
  5
E73
  6
CONTINUOUS
 62
7
 10
0.0523
 20
0.6786
 30
0.0
  0
VERTEX
  8
0
  5
E74
  6
CONTINUOUS
 62
7
 10
0.0128
 20
0.6622
 30
0.0
  0
VERTEX
  8
0
  5
E75
  6
CONTINUOUS
 62
7
 10
-0.0272
 20
0.6359
 30
0.0
  0
VERTEX
  8
0
  5
E76
  6
CONTINUOUS
 62
7
 10
-0.0609
 20
0.6072
 30
0.0
  0
SEQEND
  8
0
  5
E77
  0
LINE
  8
0
  5
E79
  6
CONTINUOUS
 62
7
 10
-4.1631
 20
1.0865
 30
0.0
 11
-4.1544
 21
1.0798
 31
0.0
  0
LINE
  8
0
  5
E7B
  6
CONTINUOUS
 62
7
 10
-4.3563
 20
-1.2234
 30
0.0
 11
-4.2793
 21
-1.3064
 31
0.0
  0
LINE
  8
0
  5
E7D
  6
CONTINUOUS
 62
7
 10
-4.3563
 20
0.5876
 30
0.0
 11
-4.3078
 21
0.5325
 31
0.0
  0
LINE
  8
0
  5
E7F
  6
CONTINUOUS
 62
7
 10
-4.2393
 20
-1.1841
 30
0.0
 11
-4.2793
 21
-1.1216
 31
0.0
  0
LINE
  8
0
  5
E81
  6
CONTINUOUS
 62
7
 10
-4.2739
 20
0.6498
 30
0.0
 11
-4.2985
 21
0.6893
 31
0.0
  0
POLYLINE
  8
0
  5
E83
  6
CONTINUOUS
 62
7
 10
0.0
 20
0.0
 30
0.0
 66
1
 70
0
  0
VERTEX
  8
0
  5
E84
  6
CONTINUOUS
 62
7
 10
-0.1231
 20
-0.5161
 30
0.0
  0
VERTEX
  8
0
  5
E85
  6
CONTINUOUS
 62
7
 10
-0.1127
 20
-0.5365
 30
0.0
  0
VERTEX
  8
0
  5
E86
  6
CONTINUOUS
 62
7
 10
-0.0894
 20
-0.5734
 30
0.0
  0
VERTEX
  8
0
  5
E87
  6
CONTINUOUS
 62
7
 10
-0.0609
 20
-0.6073
 30
0.0
  0
SEQEND
  8
0
  5
E88
  0
POLYLINE
  8
0
  5
E8A
  6
CONTINUOUS
 62
40
 10
0.0
 20
0.0
 30
0.0
 66
1
 70
0
  0
VERTEX
  8
0
  5
E8B
  6
CONTINUOUS
 62
40
 10
0.1595
 20
-0.3931
 30
0.0
  0
VERTEX
  8
0
  5
E8C
  6
CONTINUOUS
 62
40
 10
0.2449
 20
-0.581
 30
0.0
  0
VERTEX
  8
0
  5
E8D
  6
CONTINUOUS
 62
40
 10
0.288
 20
-0.6753
 30
0.0
  0
SEQEND
  8
0
  5
E8E
  0
LINE
  8
0
  5
E90
  6
CONTINUOUS
 62
7
 10
3.8951
 20
-10.0975
 30
0.0
 11
-0.1835
 21
-0.5424
 31
0.0
  0
LINE
  8
0
  5
E92
  6
CONTINUOUS
 62
7
 10
0.1595
 20
-0.3931
 30
0.0
 11
0.2818
 21
-0.6794
 31
0.0
  0
LINE
  8
0
  5
E94
  6
CONTINUOUS
 62
7
 10
4.579
 20
-9.8046
 30
0.0
 11
0.5656
 21
-0.3963
 31
0.0
  0
POLYLINE
  8
0
  5
E96
  6
CONTINUOUS
 62
7
 10
0.0
 20
0.0
 30
0.0
 66
1
 70
0
  0
VERTEX
  8
0
  5
E97
  6
CONTINUOUS
 62
7
 10
4.347
 20
-9.2631
 30
0.0
  0
VERTEX
  8
0
  5
E98
  6
CONTINUOUS
 62
7
 10
4.3555
 20
-9.2828
 30
0.0
  0
VERTEX
  8
0
  5
E99
  6
CONTINUOUS
 62
7
 10
4.3666
 20
-9.322
 30
0.0
  0
VERTEX
  8
0
  5
E9A
  6
CONTINUOUS
 62
7
 10
4.3753
 20
-9.3656
 30
0.0
  0
VERTEX
  8
0
  5
E9B
  6
CONTINUOUS
 62
7
 10
4.3772
 20
-9.4082
 30
0.0
  0
SEQEND
  8
0
  5
E9C
  0
POLYLINE
  8
0
  5
E9E
  6
CONTINUOUS
 62
7
 10
0.0
 20
0.0
 30
0.0
 66
1
 70
0
  0
VERTEX
  8
0
  5
E9F
  6
CONTINUOUS
 62
7
 10
4.347
 20
-9.2589
 30
0.0
  0
VERTEX
  8
0
  5
EA0
  6
CONTINUOUS
 62
7
 10
4.3636
 20
-9.3082
 30
0.0
  0
VERTEX
  8
0
  5
EA1
  6
CONTINUOUS
 62
7
 10
4.3728
 20
-9.3567
 30
0.0
  0
VERTEX
  8
0
  5
EA2
  6
CONTINUOUS
 62
7
 10
4.3772
 20
-9.4025
 30
0.0
  0
VERTEX
  8
0
  5
EA3
  6
CONTINUOUS
 62
7
 10
4.3753
 20
-9.451
 30
0.0
  0
VERTEX
  8
0
  5
EA4
  6
CONTINUOUS
 62
7
 10
4.3666
 20
-9.5026
 30
0.0
  0
VERTEX
  8
0
  5
EA5
  6
CONTINUOUS
 62
7
 10
4.3494
 20
-9.5471
 30
0.0
  0
VERTEX
  8
0
  5
EA6
  6
CONTINUOUS
 62
7
 10
4.3297
 20
-9.5913
 30
0.0
  0
VERTEX
  8
0
  5
EA7
  6
CONTINUOUS
 62
7
 10
4.3044
 20
-9.634
 30
0.0
  0
VERTEX
  8
0
  5
EA8
  6
CONTINUOUS
 62
7
 10
4.2707
 20
-9.6691
 30
0.0
  0
VERTEX
  8
0
  5
EA9
  6
CONTINUOUS
 62
7
 10
4.2362
 20
-9.7012
 30
0.0
  0
VERTEX
  8
0
  5
EAA
  6
CONTINUOUS
 62
7
 10
4.1968
 20
-9.7266
 30
0.0
  0
VERTEX
  8
0
  5
EAB
  6
CONTINUOUS
 62
7
 10
4.1506
 20
-9.7529
 30
0.0
  0
SEQEND
  8
0
  5
EAC
  0
LINE
  8
0
  5
EAE
  6
CONTINUOUS
 62
7
 10
-0.1835
 20
-0.5424
 30
0.0
 11
-0.1977
 21
-0.4964
 31
0.0
  0
LINE
  8
0
  5
EB0
  6
CONTINUOUS
 62
7
 10
-1.7956
 20
11.8887
 30
0.0
 11
-1.7531
 21
11.8854
 31
0.0
  0
POLYLINE
  8
0
  5
EB2
  6
CONTINUOUS
 62
7
 210
0.0
 220
0.0
 230
1.0
 10
0.0
 20
0.0
 30
0.0
 66
1
 70
0
  0
VERTEX
  8
0
  5
EB3
  6
CONTINUOUS
 62
7
 10
-1.7956
 20
11.8887
 30
0.0
  0
VERTEX
  8
0
  5
EB4
  6
CONTINUOUS
 62
7
 10
-1.7483
 20
11.8831
 30
0.0
  0
VERTEX
  8
0
  5
EB5
  6
CONTINUOUS
 62
7
 10
-1.6995
 20
11.8747
 30
0.0
  0
VERTEX
  8
0
  5
EB6
  6
CONTINUOUS
 62
7
 10
-1.6534
 20
11.8593
 30
0.0
  0
VERTEX
  8
0
  5
EB7
  6
CONTINUOUS
 62
7
 10
-1.6109
 20
11.8378
 30
0.0
  0
VERTEX
  8
0
  5
EB8
  6
CONTINUOUS
 62
7
 10
-1.5685
 20
11.8082
 30
0.0
  0
VERTEX
  8
0
  5
EB9
  6
CONTINUOUS
 62
7
 10
-1.5315
 20
11.7772
 30
0.0
  0
VERTEX
  8
0
  5
EBA
  6
CONTINUOUS
 62
7
 10
-1.5008
 20
11.7403
 30
0.0
  0
VERTEX
  8
0
  5
EBB
  6
CONTINUOUS
 62
7
 10
-1.475
 20
11.7
 30
0.0
  0
VERTEX
  8
0
  5
EBC
  6
CONTINUOUS
 62
7
 10
-1.4521
 20
11.6574
 30
0.0
  0
VERTEX
  8
0
  5
EBD
  6
CONTINUOUS
 62
7
 10
-1.435
 20
11.6122
 30
0.0
  0
VERTEX
  8
0
  5
EBE
  6
CONTINUOUS
 62
7
 10
-1.4263
 20
11.563
 30
0.0
  0
VERTEX
  8
0
  5
EBF
  6
CONTINUOUS
 62
7
 10
-1.4244
 20
11.5155
 30
0.0
  0
SEQEND
  8
0
  5
EC0
  0
POLYLINE
  8
0
  5
EC2
  6
CONTINUOUS
 62
7
 10
0.0
 20
0.0
 30
0.0
 66
1
 70
0
  0
VERTEX
  8
0
  5
EC3
  6
CONTINUOUS
 62
7
 10
4.0256
 20
9.7807
 30
0.0
  0
VERTEX
  8
0
  5
EC4
  6
CONTINUOUS
 62
7
 10
4.0682
 20
9.7759
 30
0.0
  0
VERTEX
  8
0
  5
EC5
  6
CONTINUOUS
 62
7
 10
4.1118
 20
9.7668
 30
0.0
  0
VERTEX
  8
0
  5
EC6
  6
CONTINUOUS
 62
7
 10
4.1506
 20
9.7504
 30
0.0
  0
SEQEND
  8
0
  5
EC7
  0
POLYLINE
  8
0
  5
EC9
  6
CONTINUOUS
 62
7
 10
0.0
 20
0.0
 30
0.0
 66
1
 70
0
  0
VERTEX
  8
0
  5
ECA
  6
CONTINUOUS
 62
7
 10
0.3016
 20
0.7262
 30
0.0
  0
VERTEX
  8
0
  5
ECB
  6
CONTINUOUS
 62
7
 10
0.3471
 20
0.7049
 30
0.0
  0
VERTEX
  8
0
  5
ECC
  6
CONTINUOUS
 62
7
 10
0.3871
 20
0.6761
 30
0.0
  0
VERTEX
  8
0
  5
ECD
  6
CONTINUOUS
 62
7
 10
0.4209
 20
0.6441
 30
0.0
  0
VERTEX
  8
0
  5
ECE
  6
CONTINUOUS
 62
7
 10
0.4523
 20
0.6072
 30
0.0
  0
VERTEX
  8
0
  5
ECF
  6
CONTINUOUS
 62
7
 10
0.4813
 20
0.5679
 30
0.0
  0
VERTEX
  8
0
  5
ED0
  6
CONTINUOUS
 62
7
 10
0.5028
 20
0.5244
 30
0.0
  0
VERTEX
  8
0
  5
ED1
  6
CONTINUOUS
 62
7
 10
0.5175
 20
0.4791
 30
0.0
  0
VERTEX
  8
0
  5
ED2
  6
CONTINUOUS
 62
7
 10
0.5256
 20
0.4299
 30
0.0
  0
VERTEX
  8
0
  5
ED3
  6
CONTINUOUS
 62
7
 10
0.5293
 20
0.394
 30
0.0
  0
SEQEND
  8
0
  5
ED4
  0
POLYLINE
  8
0
  5
ED6
  6
CONTINUOUS
 62
7
 210
0.0
 220
0.0
 230
1.0
 10
0.0
 20
0.0
 30
0.0
 66
1
 70
0
  0
VERTEX
  8
0
  5
ED7
  6
CONTINUOUS
 62
7
 10
-0.0609
 20
-0.6073
 30
0.0
  0
VERTEX
  8
0
  5
ED8
  6
CONTINUOUS
 62
7
 10
-0.0272
 20
-0.6367
 30
0.0
  0
VERTEX
  8
0
  5
ED9
  6
CONTINUOUS
 62
7
 10
0.0128
 20
-0.6614
 30
0.0
  0
VERTEX
  8
0
  5
EDA
  6
CONTINUOUS
 62
7
 10
0.0523
 20
-0.6794
 30
0.0
  0
VERTEX
  8
0
  5
EDB
  6
CONTINUOUS
 62
7
 10
0.0978
 20
-0.6892
 30
0.0
  0
VERTEX
  8
0
  5
EDC
  6
CONTINUOUS
 62
7
 10
0.1428
 20
-0.6951
 30
0.0
  0
VERTEX
  8
0
  5
EDD
  6
CONTINUOUS
 62
7
 10
0.1884
 20
-0.6933
 30
0.0
  0
VERTEX
  8
0
  5
EDE
  6
CONTINUOUS
 62
7
 10
0.2307
 20
-0.6844
 30
0.0
  0
VERTEX
  8
0
  5
EDF
  6
CONTINUOUS
 62
7
 10
0.2763
 20
-0.6695
 30
0.0
  0
SEQEND
  8
0
  5
EE0
  0
LINE
  8
0
  5
EE2
  6
CONTINUOUS
 62
7
 10
3.5739
 20
0.4481
 30
0.0
 11
2.1156
 21
4.0289
 31
0.0
  0
LINE
  8
0
  5
EE4
  6
CONTINUOUS
 62
7
 10
1.721
 20
5.002
 30
0.0
 11
1.6274
 21
5.2268
 31
0.0
  0
POLYLINE
  8
0
  5
EE6
  6
CONTINUOUS
 62
7
 10
0.0
 20
0.0
 30
0.0
 66
1
 70
0
  0
VERTEX
  8
0
  5
EE7
  6
CONTINUOUS
 62
7
 10
-1.7531
 20
11.8854
 30
0.0
  0
VERTEX
  8
0
  5
EE8
  6
CONTINUOUS
 62
7
 10
-1.7101
 20
11.8773
 30
0.0
  0
VERTEX
  8
0
  5
EE9
  6
CONTINUOUS
 62
7
 10
-1.6676
 20
11.865
 30
0.0
  0
VERTEX
  8
0
  5
EEA
  6
CONTINUOUS
 62
7
 10
-1.6276
 20
11.8494
 30
0.0
  0
VERTEX
  8
0
  5
EEB
  6
CONTINUOUS
 62
7
 10
-1.5913
 20
11.8265
 30
0.0
  0
VERTEX
  8
0
  5
EEC
  6
CONTINUOUS
 62
7
 10
-1.5573
 20
11.8009
 30
0.0
  0
VERTEX
  8
0
  5
EED
  6
CONTINUOUS
 62
7
 10
-1.5266
 20
11.769
 30
0.0
  0
VERTEX
  8
0
  5
EEE
  6
CONTINUOUS
 62
7
 10
-1.4977
 20
11.7377
 30
0.0
  0
VERTEX
  8
0
  5
EEF
  6
CONTINUOUS
 62
7
 10
-1.475
 20
11.7
 30
0.0
  0
VERTEX
  8
0
  5
EF0
  6
CONTINUOUS
 62
7
 10
-1.4552
 20
11.6606
 30
0.0
  0
VERTEX
  8
0
  5
EF1
  6
CONTINUOUS
 62
7
 10
-1.4386
 20
11.6197
 30
0.0
  0
VERTEX
  8
0
  5
EF2
  6
CONTINUOUS
 62
7
 10
-1.4287
 20
11.5786
 30
0.0
  0
VERTEX
  8
0
  5
EF3
  6
CONTINUOUS
 62
7
 10
-1.4244
 20
11.5352
 30
0.0
  0
VERTEX
  8
0
  5
EF4
  6
CONTINUOUS
 62
7
 10
-1.4244
 20
11.5155
 30
0.0
  0
SEQEND
  8
0
  5
EF5
  0
LINE
  8
0
  5
EF7
  6
CONTINUOUS
 62
7
 10
-2.6304
 20
9.9818
 30
0.0
 11
-3.3826
 21
10.1984
 31
0.0
  0
LINE
  8
0
  5
EF9
  6
CONTINUOUS
 62
7
 10
1.2219
 20
8.2422
 30
0.0
 11
-0.0388
 21
8.7379
 31
0.0
  0
LINE
  8
0
  5
EFB
  6
CONTINUOUS
 62
7
 10
1.0175
 20
5.8579
 30
0.0
 11
0.032
 21
6.2968
 31
0.0
  0
LINE
  8
0
  5
EFD
  6
CONTINUOUS
 62
7
 10
2.6302
 20
0.4365
 30
0.0
 11
1.1534
 21
1.7732
 31
0.0
  0
POLYLINE
  8
0
  5
EFF
  6
CONTINUOUS
 62
7
 10
0.0
 20
0.0
 30
0.0
 66
1
 70
0
  0
VERTEX
  8
0
  5
F00
  6
CONTINUOUS
 62
7
 10
4.1506
 20
9.7504
 30
0.0
  0
VERTEX
  8
0
  5
F01
  6
CONTINUOUS
 62
7
 10
4.1906
 20
9.7299
 30
0.0
  0
VERTEX
  8
0
  5
F02
  6
CONTINUOUS
 62
7
 10
4.2276
 20
9.7061
 30
0.0
  0
SEQEND
  8
0
  5
F03
  0
POLYLINE
  8
0
  5
F05
  6
CONTINUOUS
 62
7
 210
0.0
 220
0.0
 230
1.0
 10
0.0
 20
0.0
 30
0.0
 66
1
 70
0
  0
VERTEX
  8
0
  5
F06
  6
CONTINUOUS
 62
7
 10
4.1506
 20
9.7504
 30
0.0
  0
VERTEX
  8
0
  5
F07
  6
CONTINUOUS
 62
7
 10
4.1968
 20
9.7266
 30
0.0
  0
VERTEX
  8
0
  5
F08
  6
CONTINUOUS
 62
7
 10
4.2362
 20
9.7013
 30
0.0
  0
VERTEX
  8
0
  5
F09
  6
CONTINUOUS
 62
7
 10
4.2707
 20
9.6677
 30
0.0
  0
VERTEX
  8
0
  5
F0A
  6
CONTINUOUS
 62
7
 10
4.3044
 20
9.6297
 30
0.0
  0
VERTEX
  8
0
  5
F0B
  6
CONTINUOUS
 62
7
 10
4.3297
 20
9.5913
 30
0.0
  0
VERTEX
  8
0
  5
F0C
  6
CONTINUOUS
 62
7
 10
4.3494
 20
9.5478
 30
0.0
  0
VERTEX
  8
0
  5
F0D
  6
CONTINUOUS
 62
7
 10
4.3666
 20
9.4985
 30
0.0
  0
VERTEX
  8
0
  5
F0E
  6
CONTINUOUS
 62
7
 10
4.3753
 20
9.451
 30
0.0
  0
VERTEX
  8
0
  5
F0F
  6
CONTINUOUS
 62
7
 10
4.3772
 20
9.4025
 30
0.0
  0
VERTEX
  8
0
  5
F10
  6
CONTINUOUS
 62
7
 10
4.3728
 20
9.3534
 30
0.0
  0
VERTEX
  8
0
  5
F11
  6
CONTINUOUS
 62
7
 10
4.3636
 20
9.3041
 30
0.0
  0
VERTEX
  8
0
  5
F12
  6
CONTINUOUS
 62
7
 10
4.347
 20
9.2589
 30
0.0
  0
SEQEND
  8
0
  5
F13
  0
POLYLINE
  8
0
  5
F15
  6
CONTINUOUS
 62
7
 10
0.0
 20
0.0
 30
0.0
 66
1
 70
0
  0
VERTEX
  8
0
  5
F16
  6
CONTINUOUS
 62
7
 10
4.2276
 20
9.7061
 30
0.0
  0
VERTEX
  8
0
  5
F17
  6
CONTINUOUS
 62
7
 10
4.2583
 20
9.6816
 30
0.0
  0
VERTEX
  8
0
  5
F18
  6
CONTINUOUS
 62
7
 10
4.2904
 20
9.6495
 30
0.0
  0
VERTEX
  8
0
  5
F19
  6
CONTINUOUS
 62
7
 10
4.3156
 20
9.6133
 30
0.0
  0
VERTEX
  8
0
  5
F1A
  6
CONTINUOUS
 62
7
 10
4.3384
 20
9.5756
 30
0.0
  0
VERTEX
  8
0
  5
F1B
  6
CONTINUOUS
 62
7
 10
4.3555
 20
9.5355
 30
0.0
  0
VERTEX
  8
0
  5
F1C
  6
CONTINUOUS
 62
7
 10
4.3666
 20
9.4928
 30
0.0
  0
VERTEX
  8
0
  5
F1D
  6
CONTINUOUS
 62
7
 10
4.3753
 20
9.4533
 30
0.0
  0
VERTEX
  8
0
  5
F1E
  6
CONTINUOUS
 62
7
 10
4.3772
 20
9.4083
 30
0.0
  0
VERTEX
  8
0
  5
F1F
  6
CONTINUOUS
 62
7
 10
4.3753
 20
9.3648
 30
0.0
  0
VERTEX
  8
0
  5
F20
  6
CONTINUOUS
 62
7
 10
4.3666
 20
9.3221
 30
0.0
  0
VERTEX
  8
0
  5
F21
  6
CONTINUOUS
 62
7
 10
4.3555
 20
9.2818
 30
0.0
  0
VERTEX
  8
0
  5
F22
  6
CONTINUOUS
 62
7
 10
4.347
 20
9.2589
 30
0.0
  0
SEQEND
  8
0
  5
F23
  0
POLYLINE
  8
0
  5
F25
  6
CONTINUOUS
 62
7
 10
0.0
 20
0.0
 30
0.0
 66
1
 70
0
  0
VERTEX
  8
0
  5
F26
  6
CONTINUOUS
 62
7
 10
5.964297
 20
-0.239789
 30
0.0
 42
0.048274
  0
VERTEX
  8
0
  5
F27
  6
CONTINUOUS
 62
7
 10
6.010964
 20
-0.247262
 30
0.0
 42
0.048284
  0
VERTEX
  8
0
  5
F28
  6
CONTINUOUS
 62
7
 10
6.058192
 20
-0.245646
 30
0.0
 42
0.048262
  0
VERTEX
  8
0
  5
F29
  6
CONTINUOUS
 62
7
 10
6.104245
 20
-0.235001
 30
0.0
 42
0.04821
  0
VERTEX
  8
0
  5
F2A
  6
CONTINUOUS
 62
7
 10
6.147427
 20
-0.215718
 30
0.0
 42
0.048137
  0
VERTEX
  8
0
  5
F2B
  6
CONTINUOUS
 62
7
 10
6.186151
 20
-0.188508
 30
0.0
 42
0.048053
  0
VERTEX
  8
0
  5
F2C
  6
CONTINUOUS
 62
7
 10
6.218992
 20
-0.15437
 30
0.0
 42
0.04797
  0
VERTEX
  8
0
  5
F2D
  6
CONTINUOUS
 62
7
 10
6.244742
 20
-0.114561
 30
0.0
 42
0.047901
  0
VERTEX
  8
0
  5
F2E
  6
CONTINUOUS
 62
7
 10
6.262453
 20
-0.070545
 30
0.0
 42
0.047855
  0
VERTEX
  8
0
  5
F2F
  6
CONTINUOUS
 62
7
 10
6.271474
 20
-0.023942
 30
0.0
 42
0.047838
  0
VERTEX
  8
0
  5
F30
  6
CONTINUOUS
 62
7
 10
6.271473
 20
0.023535
 30
0.0
 42
0.047855
  0
VERTEX
  8
0
  5
F31
  6
CONTINUOUS
 62
7
 10
6.26245
 20
0.070138
 30
0.0
 42
0.047901
  0
VERTEX
  8
0
  5
F32
  6
CONTINUOUS
 62
7
 10
6.244738
 20
0.114153
 30
0.0
 42
0.04797
  0
VERTEX
  8
0
  5
F33
  6
CONTINUOUS
 62
7
 10
6.218987
 20
0.153961
 30
0.0
 42
0.048053
  0
VERTEX
  8
0
  5
F34
  6
CONTINUOUS
 62
7
 10
6.186145
 20
0.188098
 30
0.0
 42
0.048137
  0
VERTEX
  8
0
  5
F35
  6
CONTINUOUS
 62
7
 10
6.14742
 20
0.215307
 30
0.0
 42
0.04821
  0
VERTEX
  8
0
  5
F36
  6
CONTINUOUS
 62
7
 10
6.104237
 20
0.234588
 30
0.0
 42
0.048262
  0
VERTEX
  8
0
  5
F37
  6
CONTINUOUS
 62
7
 10
6.058184
 20
0.245232
 30
0.0
 42
0.048284
  0
VERTEX
  8
0
  5
F38
  6
CONTINUOUS
 62
7
 10
6.010956
 20
0.246846
 30
0.0
 42
0.048274
  0
VERTEX
  8
0
  5
F39
  6
CONTINUOUS
 62
7
 10
5.96429
 20
0.239372
 30
0.0
 42
0.048274
  0
SEQEND
  8
0
  5
F3A
  0
POLYLINE
  8
0
  5
F3C
  6
CONTINUOUS
 62
7
 10
0.0
 20
0.0
 30
0.0
 66
1
 70
0
  0
VERTEX
  8
0
  5
F3D
  6
CONTINUOUS
 62
7
 10
5.921457
 20
-0.291164
 30
0.0
 42
0.048182
  0
VERTEX
  8
0
  5
F3E
  6
CONTINUOUS
 62
7
 10
5.978583
 20
-0.305894
 30
0.0
 42
0.048208
  0
VERTEX
  8
0
  5
F3F
  6
CONTINUOUS
 62
7
 10
6.037457
 20
-0.309414
 30
0.0
 42
0.048202
  0
VERTEX
  8
0
  5
F40
  6
CONTINUOUS
 62
7
 10
6.095919
 20
-0.301594
 30
0.0
 42
0.048164
  0
VERTEX
  8
0
  5
F41
  6
CONTINUOUS
 62
7
 10
6.151825
 20
-0.282722
 30
0.0
 42
0.0481
  0
VERTEX
  8
0
  5
F42
  6
CONTINUOUS
 62
7
 10
6.203126
 20
-0.253488
 30
0.0
 42
0.04802
  0
VERTEX
  8
0
  5
F43
  6
CONTINUOUS
 62
7
 10
6.247939
 20
-0.214966
 30
0.0
 42
0.047935
  0
VERTEX
  8
0
  5
F44
  6
CONTINUOUS
 62
7
 10
6.284621
 20
-0.168567
 30
0.0
 42
0.047858
  0
VERTEX
  8
0
  5
F45
  6
CONTINUOUS
 62
7
 10
6.311827
 20
-0.115994
 30
0.0
 42
0.047799
  0
VERTEX
  8
0
  5
F46
  6
CONTINUOUS
 62
7
 10
6.328559
 20
-0.059175
 30
0.0
 42
0.047768
  0
VERTEX
  8
0
  5
F47
  6
CONTINUOUS
 62
7
 10
6.334204
 20
-0.000194
 30
0.0
 42
0.047768
  0
VERTEX
  8
0
  5
F48
  6
CONTINUOUS
 62
7
 10
6.328554
 20
0.058788
 30
0.0
 42
0.0478
  0
VERTEX
  8
0
  5
F49
  6
CONTINUOUS
 62
7
 10
6.311817
 20
0.115605
 30
0.0
 42
0.047858
  0
VERTEX
  8
0
  5
F4A
  6
CONTINUOUS
 62
7
 10
6.284606
 20
0.168175
 30
0.0
 42
0.047935
  0
VERTEX
  8
0
  5
F4B
  6
CONTINUOUS
 62
7
 10
6.24792
 20
0.214571
 30
0.0
 42
0.04802
  0
VERTEX
  8
0
  5
F4C
  6
CONTINUOUS
 62
7
 10
6.203103
 20
0.253089
 30
0.0
 42
0.0481
  0
VERTEX
  8
0
  5
F4D
  6
CONTINUOUS
 62
7
 10
6.1518
 20
0.282318
 30
0.0
 42
0.048164
  0
VERTEX
  8
0
  5
F4E
  6
CONTINUOUS
 62
7
 10
6.095892
 20
0.301186
 30
0.0
 42
0.048202
  0
VERTEX
  8
0
  5
F4F
  6
CONTINUOUS
 62
7
 10
6.037429
 20
0.309
 30
0.0
 42
0.048208
  0
VERTEX
  8
0
  5
F50
  6
CONTINUOUS
 62
7
 10
5.978556
 20
0.305475
 30
0.0
 42
0.048182
  0
VERTEX
  8
0
  5
F51
  6
CONTINUOUS
 62
7
 10
5.921431
 20
0.290739
 30
0.0
 42
0.048182
  0
SEQEND
  8
0
  5
F52
  0
POLYLINE
  8
0
  5
F54
  6
CONTINUOUS
 62
7
 10
0.0
 20
0.0
 30
0.0
 66
1
 70
0
  0
VERTEX
  8
0
  5
F55
  6
CONTINUOUS
 62
7
 10
5.864204
 20
-0.337244
 30
0.0
 42
0.048327
  0
VERTEX
  8
0
  5
F56
  6
CONTINUOUS
 62
7
 10
5.931369
 20
-0.362159
 30
0.0
 42
0.048369
  0
VERTEX
  8
0
  5
F57
  6
CONTINUOUS
 62
7
 10
6.002037
 20
-0.373707
 30
0.0
 42
0.048381
  0
VERTEX
  8
0
  5
F58
  6
CONTINUOUS
 62
7
 10
6.073599
 20
-0.371459
 30
0.0
 42
0.048359
  0
VERTEX
  8
0
  5
F59
  6
CONTINUOUS
 62
7
 10
6.143411
 20
-0.3555
 30
0.0
 42
0.048307
  0
VERTEX
  8
0
  5
F5A
  6
CONTINUOUS
 62
7
 10
6.208896
 20
-0.326418
 30
0.0
 42
0.048234
  0
VERTEX
  8
0
  5
F5B
  6
CONTINUOUS
 62
7
 10
6.267634
 20
-0.285288
 30
0.0
 42
0.048149
  0
VERTEX
  8
0
  5
F5C
  6
CONTINUOUS
 62
7
 10
6.317456
 20
-0.233629
 30
0.0
 42
0.048066
  0
VERTEX
  8
0
  5
F5D
  6
CONTINUOUS
 62
7
 10
6.356522
 20
-0.173349
 30
0.0
 42
0.047996
  0
VERTEX
  8
0
  5
F5E
  6
CONTINUOUS
 62
7
 10
6.383389
 20
-0.106674
 30
0.0
 42
0.04795
  0
VERTEX
  8
0
  5
F5F
  6
CONTINUOUS
 62
7
 10
6.397065
 20
-0.036067
 30
0.0
 42
0.047934
  0
VERTEX
  8
0
  5
F60
  6
CONTINUOUS
 62
7
 10
6.397044
 20
0.035864
 30
0.0
 42
0.04795
  0
VERTEX
  8
0
  5
F61
  6
CONTINUOUS
 62
7
 10
6.383328
 20
0.106464
 30
0.0
 42
0.047996
  0
VERTEX
  8
0
  5
F62
  6
CONTINUOUS
 62
7
 10
6.356424
 20
0.173123
 30
0.0
 42
0.048066
  0
VERTEX
  8
0
  5
F63
  6
CONTINUOUS
 62
7
 10
6.317323
 20
0.233381
 30
0.0
 42
0.04815
  0
VERTEX
  8
0
  5
F64
  6
CONTINUOUS
 62
7
 10
6.267472
 20
0.285011
 30
0.0
 42
0.048234
  0
VERTEX
  8
0
  5
F65
  6
CONTINUOUS
 62
7
 10
6.208711
 20
0.326107
 30
0.0
 42
0.048307
  0
VERTEX
  8
0
  5
F66
  6
CONTINUOUS
 62
7
 10
6.14321
 20
0.355152
 30
0.0
 42
0.048359
  0
VERTEX
  8
0
  5
F67
  6
CONTINUOUS
 62
7
 10
6.073388
 20
0.371071
 30
0.0
 42
0.048381
  0
VERTEX
  8
0
  5
F68
  6
CONTINUOUS
 62
7
 10
6.001825
 20
0.373278
 30
0.0
 42
0.048369
  0
VERTEX
  8
0
  5
F69
  6
CONTINUOUS
 62
7
 10
5.931164
 20
0.36169
 30
0.0
 42
0.048327
  0
VERTEX
  8
0
  5
F6A
  6
CONTINUOUS
 62
7
 10
5.864013
 20
0.336736
 30
0.0
 42
0.048327
  0
SEQEND
  8
0
  5
F6B
  0
POLYLINE
  8
0
  5
F6D
  6
CONTINUOUS
 62
7
 10
0.0
 20
0.0
 30
0.0
 66
1
 70
0
  0
VERTEX
  8
0
  5
F6E
  6
CONTINUOUS
 62
7
 10
-2.168818
 20
-12.085513
 30
0.0
 42
0.048904
  0
VERTEX
  8
0
  5
F6F
  6
CONTINUOUS
 62
7
 10
-2.16166
 20
-12.158533
 30
0.0
 42
0.048937
  0
VERTEX
  8
0
  5
F70
  6
CONTINUOUS
 62
7
 10
-2.14046
 20
-12.228747
 30
0.0
 42
0.049
  0
VERTEX
  8
0
  5
F71
  6
CONTINUOUS
 62
7
 10
-2.106033
 20
-12.293457
 30
0.0
 42
0.049082
  0
VERTEX
  8
0
  5
F72
  6
CONTINUOUS
 62
7
 10
-2.059702
 20
-12.350175
 30
0.0
 42
0.049171
  0
VERTEX
  8
0
  5
F73
  6
CONTINUOUS
 62
7
 10
-2.003247
 20
-12.396723
 30
0.0
 42
0.049253
  0
VERTEX
  8
0
  5
F74
  6
CONTINUOUS
 62
7
 10
-1.938839
 20
-12.431311
 30
0.0
 42
0.049317
  0
VERTEX
  8
0
  5
F75
  6
CONTINUOUS
 62
7
 10
-1.868951
 20
-12.45261
 30
0.0
 42
0.049351
  0
VERTEX
  8
0
  5
F76
  6
CONTINUOUS
 62
7
 10
-1.796271
 20
-12.459802
 30
0.0
 42
0.049351
  0
VERTEX
  8
0
  5
F77
  6
CONTINUOUS
 62
7
 10
-1.723591
 20
-12.45261
 30
0.0
 42
0.049317
  0
VERTEX
  8
0
  5
F78
  6
CONTINUOUS
 62
7
 10
-1.653703
 20
-12.431311
 30
0.0
 42
0.049253
  0
VERTEX
  8
0
  5
F79
  6
CONTINUOUS
 62
7
 10
-1.589295
 20
-12.396723
 30
0.0
 42
0.049171
  0
VERTEX
  8
0
  5
F7A
  6
CONTINUOUS
 62
7
 10
-1.53284
 20
-12.350175
 30
0.0
 42
0.049082
  0
VERTEX
  8
0
  5
F7B
  6
CONTINUOUS
 62
7
 10
-1.486509
 20
-12.293457
 30
0.0
 42
0.049
  0
VERTEX
  8
0
  5
F7C
  6
CONTINUOUS
 62
7
 10
-1.452082
 20
-12.228747
 30
0.0
 42
0.048937
  0
VERTEX
  8
0
  5
F7D
  6
CONTINUOUS
 62
7
 10
-1.430882
 20
-12.158533
 30
0.0
 42
0.048904
  0
VERTEX
  8
0
  5
F7E
  6
CONTINUOUS
 62
7
 10
-1.423724
 20
-12.085513
 30
0.0
 42
0.048904
  0
SEQEND
  8
0
  5
F7F
  0
POLYLINE
  8
0
  5
F81
  6
CONTINUOUS
 62
7
 10
0.0
 20
0.0
 30
0.0
 66
1
 70
0
  0
VERTEX
  8
0
  5
F82
  6
CONTINUOUS
 62
7
 10
-1.423724
 20
12.085069
 30
0.0
 42
0.048904
  0
VERTEX
  8
0
  5
F83
  6
CONTINUOUS
 62
7
 10
-1.430882
 20
12.15809
 30
0.0
 42
0.048937
  0
VERTEX
  8
0
  5
F84
  6
CONTINUOUS
 62
7
 10
-1.452082
 20
12.228304
 30
0.0
 42
0.049
  0
VERTEX
  8
0
  5
F85
  6
CONTINUOUS
 62
7
 10
-1.486509
 20
12.293013
 30
0.0
 42
0.049082
  0
VERTEX
  8
0
  5
F86
  6
CONTINUOUS
 62
7
 10
-1.53284
 20
12.349732
 30
0.0
 42
0.049171
  0
VERTEX
  8
0
  5
F87
  6
CONTINUOUS
 62
7
 10
-1.589295
 20
12.396279
 30
0.0
 42
0.049253
  0
VERTEX
  8
0
  5
F88
  6
CONTINUOUS
 62
7
 10
-1.653703
 20
12.430867
 30
0.0
 42
0.049317
  0
VERTEX
  8
0
  5
F89
  6
CONTINUOUS
 62
7
 10
-1.723591
 20
12.452167
 30
0.0
 42
0.049351
  0
VERTEX
  8
0
  5
F8A
  6
CONTINUOUS
 62
7
 10
-1.796271
 20
12.459359
 30
0.0
 42
0.049351
  0
VERTEX
  8
0
  5
F8B
  6
CONTINUOUS
 62
7
 10
-1.868951
 20
12.452167
 30
0.0
 42
0.049317
  0
VERTEX
  8
0
  5
F8C
  6
CONTINUOUS
 62
7
 10
-1.938839
 20
12.430867
 30
0.0
 42
0.049253
  0
VERTEX
  8
0
  5
F8D
  6
CONTINUOUS
 62
7
 10
-2.003247
 20
12.396279
 30
0.0
 42
0.049171
  0
VERTEX
  8
0
  5
F8E
  6
CONTINUOUS
 62
7
 10
-2.059702
 20
12.349732
 30
0.0
 42
0.049082
  0
VERTEX
  8
0
  5
F8F
  6
CONTINUOUS
 62
7
 10
-2.106033
 20
12.293013
 30
0.0
 42
0.049
  0
VERTEX
  8
0
  5
F90
  6
CONTINUOUS
 62
7
 10
-2.14046
 20
12.228304
 30
0.0
 42
0.048937
  0
VERTEX
  8
0
  5
F91
  6
CONTINUOUS
 62
7
 10
-2.16166
 20
12.15809
 30
0.0
 42
0.048904
  0
VERTEX
  8
0
  5
F92
  6
CONTINUOUS
 62
7
 10
-2.168818
 20
12.085069
 30
0.0
 42
0.048904
  0
SEQEND
  8
0
  5
F93
  0
POLYLINE
  8
0
  5
F95
  6
CONTINUOUS
 62
7
 10
0.0
 20
0.0
 30
0.0
 66
1
 70
0
  0
VERTEX
  8
0
  5
F96
  6
CONTINUOUS
 62
7
 10
4.596012
 20
9.843179
 30
0.0
 42
0.048941
  0
VERTEX
  8
0
  5
F97
  6
CONTINUOUS
 62
7
 10
4.618062
 20
9.913128
 30
0.0
 42
0.048905
  0
VERTEX
  8
0
  5
F98
  6
CONTINUOUS
 62
7
 10
4.626106
 20
9.986055
 30
0.0
 42
0.048903
  0
VERTEX
  8
0
  5
F99
  6
CONTINUOUS
 62
7
 10
4.619835
 20
10.059157
 30
0.0
 42
0.048934
  0
VERTEX
  8
0
  5
F9A
  6
CONTINUOUS
 62
7
 10
4.599488
 20
10.129626
 30
0.0
 42
0.048995
  0
VERTEX
  8
0
  5
F9B
  6
CONTINUOUS
 62
7
 10
4.565849
 20
10.194753
 30
0.0
 42
0.049076
  0
VERTEX
  8
0
  5
F9C
  6
CONTINUOUS
 62
7
 10
4.52021
 20
10.252034
 30
0.0
 42
0.049165
  0
VERTEX
  8
0
  5
F9D
  6
CONTINUOUS
 62
7
 10
4.464324
 20
10.29927
 30
0.0
 42
0.049249
  0
VERTEX
  8
0
  5
F9E
  6
CONTINUOUS
 62
7
 10
4.40034
 20
10.334645
 30
0.0
 42
0.049313
  0
VERTEX
  8
0
  5
F9F
  6
CONTINUOUS
 62
7
 10
4.330717
 20
10.356798
 30
0.0
 42
0.04935
  0
VERTEX
  8
0
  5
FA0
  6
CONTINUOUS
 62
7
 10
4.258129
 20
10.36488
 30
0.0
 42
0.049352
  0
VERTEX
  8
0
  5
FA1
  6
CONTINUOUS
 62
7
 10
4.185367
 20
10.358579
 30
0.0
 42
0.04932
  0
VERTEX
  8
0
  5
FA2
  6
CONTINUOUS
 62
7
 10
4.115226
 20
10.338137
 30
0.0
 42
0.049258
  0
VERTEX
  8
0
  5
FA3
  6
CONTINUOUS
 62
7
 10
4.050402
 20
10.304341
 30
0.0
 42
0.049176
  0
VERTEX
  8
0
  5
FA4
  6
CONTINUOUS
 62
7
 10
3.993387
 20
10.258488
 30
0.0
 42
0.049087
  0
VERTEX
  8
0
  5
FA5
  6
CONTINUOUS
 62
7
 10
3.946371
 20
10.202341
 30
0.0
 42
0.049005
  0
VERTEX
  8
0
  5
FA6
  6
CONTINUOUS
 62
7
 10
3.911162
 20
10.138058
 30
0.0
 42
0.049005
  0
SEQEND
  8
0
  5
FA7
  0
POLYLINE
  8
0
  5
FA9
  6
CONTINUOUS
 62
7
 10
0.0
 20
0.0
 30
0.0
 66
1
 70
0
  0
VERTEX
  8
0
  5
FAA
  6
CONTINUOUS
 62
7
 10
-6.301249
 20
0.021456
 30
0.0
 42
0.046375
  0
VERTEX
  8
0
  5
FAB
  6
CONTINUOUS
 62
7
 10
-6.303941
 20
0.007098
 30
0.0
 42
0.04636
  0
VERTEX
  8
0
  5
FAC
  6
CONTINUOUS
 62
7
 10
-6.303941
 20
-0.007513
 30
0.0
 42
0.046375
  0
VERTEX
  8
0
  5
FAD
  6
CONTINUOUS
 62
7
 10
-6.301249
 20
-0.021871
 30
0.0
 42
0.046375
  0
SEQEND
  8
0
  5
FAE
  0
POLYLINE
  8
0
  5
FB0
  6
CONTINUOUS
 62
7
 10
0.0
 20
0.0
 30
0.0
 66
1
 70
0
  0
VERTEX
  8
0
  5
FB1
  6
CONTINUOUS
 62
7
 10
3.911162
 20
-10.138502
 30
0.0
 42
0.049005
  0
VERTEX
  8
0
  5
FB2
  6
CONTINUOUS
 62
7
 10
3.946371
 20
-10.202785
 30
0.0
 42
0.049087
  0
VERTEX
  8
0
  5
FB3
  6
CONTINUOUS
 62
7
 10
3.993387
 20
-10.258932
 30
0.0
 42
0.049176
  0
VERTEX
  8
0
  5
FB4
  6
CONTINUOUS
 62
7
 10
4.050402
 20
-10.304784
 30
0.0
 42
0.049258
  0
VERTEX
  8
0
  5
FB5
  6
CONTINUOUS
 62
7
 10
4.115226
 20
-10.338581
 30
0.0
 42
0.04932
  0
VERTEX
  8
0
  5
FB6
  6
CONTINUOUS
 62
7
 10
4.185367
 20
-10.359022
 30
0.0
 42
0.049352
  0
VERTEX
  8
0
  5
FB7
  6
CONTINUOUS
 62
7
 10
4.258129
 20
-10.365323
 30
0.0
 42
0.04935
  0
VERTEX
  8
0
  5
FB8
  6
CONTINUOUS
 62
7
 10
4.330717
 20
-10.357242
 30
0.0
 42
0.049313
  0
VERTEX
  8
0
  5
FB9
  6
CONTINUOUS
 62
7
 10
4.40034
 20
-10.335088
 30
0.0
 42
0.049249
  0
VERTEX
  8
0
  5
FBA
  6
CONTINUOUS
 62
7
 10
4.464324
 20
-10.299714
 30
0.0
 42
0.049165
  0
VERTEX
  8
0
  5
FBB
  6
CONTINUOUS
 62
7
 10
4.52021
 20
-10.252478
 30
0.0
 42
0.049076
  0
VERTEX
  8
0
  5
FBC
  6
CONTINUOUS
 62
7
 10
4.565849
 20
-10.195196
 30
0.0
 42
0.048995
  0
VERTEX
  8
0
  5
FBD
  6
CONTINUOUS
 62
7
 10
4.599488
 20
-10.130069
 30
0.0
 42
0.048934
  0
VERTEX
  8
0
  5
FBE
  6
CONTINUOUS
 62
7
 10
4.619835
 20
-10.059601
 30
0.0
 42
0.048903
  0
VERTEX
  8
0
  5
FBF
  6
CONTINUOUS
 62
7
 10
4.626106
 20
-9.986498
 30
0.0
 42
0.048905
  0
VERTEX
  8
0
  5
FC0
  6
CONTINUOUS
 62
7
 10
4.618062
 20
-9.913571
 30
0.0
 42
0.048941
  0
VERTEX
  8
0
  5
FC1
  6
CONTINUOUS
 62
7
 10
4.596012
 20
-9.843622
 30
0.0
 42
0.048941
  0
SEQEND
  8
0
  5
FC2
  0
POLYLINE
  8
0
  5
FC4
  6
CONTINUOUS
 62
7
 10
0.0
 20
0.0
 30
0.0
 66
1
 70
0
  0
VERTEX
  8
0
  5
FC5
  6
CONTINUOUS
 62
7
 10
6.026259
 20
0.039089
 30
0.0
 42
0.048904
  0
VERTEX
  8
0
  5
FC6
  6
CONTINUOUS
 62
7
 10
6.019495
 20
0.108087
 30
0.0
 42
0.048937
  0
VERTEX
  8
0
  5
FC7
  6
CONTINUOUS
 62
7
 10
5.999463
 20
0.174433
 30
0.0
 42
0.049
  0
VERTEX
  8
0
  5
FC8
  6
CONTINUOUS
 62
7
 10
5.966932
 20
0.235579
 30
0.0
 42
0.049082
  0
VERTEX
  8
0
  5
FC9
  6
CONTINUOUS
 62
7
 10
5.923154
 20
0.289173
 30
0.0
 42
0.049171
  0
VERTEX
  8
0
  5
FCA
  6
CONTINUOUS
 62
7
 10
5.869809
 20
0.333156
 30
0.0
 42
0.049253
  0
VERTEX
  8
0
  5
FCB
  6
CONTINUOUS
 62
7
 10
5.808948
 20
0.365839
 30
0.0
 42
0.049317
  0
VERTEX
  8
0
  5
FCC
  6
CONTINUOUS
 62
7
 10
5.742911
 20
0.385965
 30
0.0
 42
0.049351
  0
VERTEX
  8
0
  5
FCD
  6
CONTINUOUS
 62
7
 10
5.674234
 20
0.392761
 30
0.0
 42
0.049351
  0
SEQEND
  8
0
  5
FCE
  0
POLYLINE
  8
0
  5
FD0
  6
CONTINUOUS
 62
7
 10
0.0
 20
0.0
 30
0.0
 66
1
 70
0
  0
VERTEX
  8
0
  5
FD1
  6
CONTINUOUS
 62
7
 10
5.674234
 20
-0.393175
 30
0.0
 42
0.049351
  0
VERTEX
  8
0
  5
FD2
  6
CONTINUOUS
 62
7
 10
5.742911
 20
-0.38638
 30
0.0
 42
0.049317
  0
VERTEX
  8
0
  5
FD3
  6
CONTINUOUS
 62
7
 10
5.808948
 20
-0.366254
 30
0.0
 42
0.049253
  0
VERTEX
  8
0
  5
FD4
  6
CONTINUOUS
 62
7
 10
5.869809
 20
-0.333571
 30
0.0
 42
0.049171
  0
VERTEX
  8
0
  5
FD5
  6
CONTINUOUS
 62
7
 10
5.923154
 20
-0.289588
 30
0.0
 42
0.049082
  0
VERTEX
  8
0
  5
FD6
  6
CONTINUOUS
 62
7
 10
5.966932
 20
-0.235993
 30
0.0
 42
0.049
  0
VERTEX
  8
0
  5
FD7
  6
CONTINUOUS
 62
7
 10
5.999463
 20
-0.174848
 30
0.0
 42
0.048937
  0
VERTEX
  8
0
  5
FD8
  6
CONTINUOUS
 62
7
 10
6.019495
 20
-0.108502
 30
0.0
 42
0.048904
  0
VERTEX
  8
0
  5
FD9
  6
CONTINUOUS
 62
7
 10
6.026259
 20
-0.039504
 30
0.0
 42
0.048904
  0
SEQEND
  8
0
  5
FDA
  0
POLYLINE
  8
0
  5
FDC
  6
CONTINUOUS
 62
7
 10
0.0
 20
0.0
 30
0.0
 66
1
 70
0
  0
VERTEX
  8
0
  5
FDD
  6
CONTINUOUS
 62
7
 10
-1.170969
 20
4.482278
 30
0.0
 42
0.026191
  0
VERTEX
  8
0
  5
FDE
  6
CONTINUOUS
 62
7
 10
-0.033276
 20
4.027854
 30
0.0
 42
0.026207
  0
VERTEX
  8
0
  5
FDF
  6
CONTINUOUS
 62
7
 10
1.145355
 20
3.695003
 30
0.0
 42
0.026207
  0
SEQEND
  8
0
  5
FE0
  0
POLYLINE
  8
0
  5
FE2
  6
CONTINUOUS
 62
7
 10
0.0
 20
0.0
 30
0.0
 66
1
 70
0
  0
VERTEX
  8
0
  5
FE3
  6
CONTINUOUS
 62
7
 10
1.805015
 20
3.300683
 30
0.0
 42
0.011646
  0
VERTEX
  8
0
  5
FE4
  6
CONTINUOUS
 62
7
 10
2.307614
 20
2.770369
 30
0.0
 42
0.011651
  0
VERTEX
  8
0
  5
FE5
  6
CONTINUOUS
 62
7
 10
2.834253
 20
2.264148
 30
0.0
 42
0.011651
  0
SEQEND
  8
0
  5
FE6
  0
POLYLINE
  8
0
  5
FE8
  6
CONTINUOUS
 62
7
 10
0.0
 20
0.0
 30
0.0
 66
1
 70
0
  0
VERTEX
  8
0
  5
FE9
  6
CONTINUOUS
 62
7
 10
2.834253
 20
-2.264563
 30
0.0
 42
0.011651
  0
VERTEX
  8
0
  5
FEA
  6
CONTINUOUS
 62
7
 10
2.307614
 20
-2.770784
 30
0.0
 42
0.011646
  0
VERTEX
  8
0
  5
FEB
  6
CONTINUOUS
 62
7
 10
1.805015
 20
-3.301098
 30
0.0
 42
0.011646
  0
SEQEND
  8
0
  5
FEC
  0
POLYLINE
  8
0
  5
FEE
  6
CONTINUOUS
 62
7
 10
0.0
 20
0.0
 30
0.0
 66
1
 70
0
  0
VERTEX
  8
0
  5
FEF
  6
CONTINUOUS
 62
7
 10
1.145355
 20
-3.695447
 30
0.0
 42
0.026207
  0
VERTEX
  8
0
  5
FF0
  6
CONTINUOUS
 62
7
 10
-0.033276
 20
-4.028297
 30
0.0
 42
0.026191
  0
VERTEX
  8
0
  5
FF1
  6
CONTINUOUS
 62
7
 10
-1.170969
 20
-4.482721
 30
0.0
 42
0.026191
  0
SEQEND
  8
0
  5
FF2
  0
POLYLINE
  8
0
  5
FF4
  6
CONTINUOUS
 62
7
 10
0.0
 20
0.0
 30
0.0
 66
1
 70
0
  0
VERTEX
  8
0
  5
FF5
  6
CONTINUOUS
 62
7
 10
2.672234
 20
0.392789
 30
0.0
 42
0.013351
  0
VERTEX
  8
0
  5
FF6
  6
CONTINUOUS
 62
7
 10
2.650726
 20
0.415681
 30
0.0
 42
0.013357
  0
VERTEX
  8
0
  5
FF7
  6
CONTINUOUS
 62
7
 10
2.628033
 20
0.437388
 30
0.0
 42
0.013357
  0
SEQEND
  8
0
  5
FF8
  0
POLYLINE
  8
0
  5
FFA
  6
CONTINUOUS
 62
7
 10
0.0
 20
0.0
 30
0.0
 66
1
 70
0
  0
VERTEX
  8
0
  5
FFB
  6
CONTINUOUS
 62
7
 10
2.628033
 20
-0.437803
 30
0.0
 42
0.013357
  0
VERTEX
  8
0
  5
FFC
  6
CONTINUOUS
 62
7
 10
2.650726
 20
-0.416096
 30
0.0
 42
0.013351
  0
VERTEX
  8
0
  5
FFD
  6
CONTINUOUS
 62
7
 10
2.672234
 20
-0.393204
 30
0.0
 42
0.013351
  0
SEQEND
  8
0
  5
FFE
  0
POLYLINE
  8
0
  5
1000
  6
CONTINUOUS
 62
7
 10
0.0
 20
0.0
 30
0.0
 66
1
 70
0
  0
VERTEX
  8
0
  5
1001
  6
CONTINUOUS
 62
7
 10
-0.301873
 20
2.485936
 30
0.0
 42
0.048509
  0
VERTEX
  8
0
  5
1002
  6
CONTINUOUS
 62
7
 10
-0.412838
 20
2.507831
 30
0.0
 42
0.048525
  0
VERTEX
  8
0
  5
1003
  6
CONTINUOUS
 62
7
 10
-0.525922
 20
2.50793
 30
0.0
 42
0.048509
  0
VERTEX
  8
0
  5
1004
  6
CONTINUOUS
 62
7
 10
-0.636925
 20
2.486229
 30
0.0
 42
0.048462
  0
VERTEX
  8
0
  5
1005
  6
CONTINUOUS
 62
7
 10
-0.741722
 20
2.443536
 30
0.0
 42
0.048391
  0
VERTEX
  8
0
  5
1006
  6
CONTINUOUS
 62
7
 10
-0.836418
 20
2.381436
 30
0.0
 42
0.048306
  0
VERTEX
  8
0
  5
1007
  6
CONTINUOUS
 62
7
 10
-0.917497
 20
2.302237
 30
0.0
 42
0.048222
  0
VERTEX
  8
0
  5
1008
  6
CONTINUOUS
 62
7
 10
-0.981946
 20
2.208881
 30
0.0
 42
0.048149
  0
VERTEX
  8
0
  5
1009
  6
CONTINUOUS
 62
7
 10
-1.02737
 20
2.104836
 30
0.0
 42
0.048149
  0
SEQEND
  8
0
  5
100A
  0
POLYLINE
  8
0
  5
100C
  6
CONTINUOUS
 62
7
 10
0.0
 20
0.0
 30
0.0
 66
1
 70
0
  0
VERTEX
  8
0
  5
100D
  6
CONTINUOUS
 62
7
 10
-1.02737
 20
-2.105279
 30
0.0
 42
0.048149
  0
VERTEX
  8
0
  5
100E
  6
CONTINUOUS
 62
7
 10
-0.981946
 20
-2.209324
 30
0.0
 42
0.048222
  0
VERTEX
  8
0
  5
100F
  6
CONTINUOUS
 62
7
 10
-0.917497
 20
-2.30268
 30
0.0
 42
0.048306
  0
VERTEX
  8
0
  5
1010
  6
CONTINUOUS
 62
7
 10
-0.836418
 20
-2.38188
 30
0.0
 42
0.048391
  0
VERTEX
  8
0
  5
1011
  6
CONTINUOUS
 62
7
 10
-0.741722
 20
-2.44398
 30
0.0
 42
0.048462
  0
VERTEX
  8
0
  5
1012
  6
CONTINUOUS
 62
7
 10
-0.636925
 20
-2.486673
 30
0.0
 42
0.048509
  0
VERTEX
  8
0
  5
1013
  6
CONTINUOUS
 62
7
 10
-0.525922
 20
-2.508373
 30
0.0
 42
0.048525
  0
VERTEX
  8
0
  5
1014
  6
CONTINUOUS
 62
7
 10
-0.412838
 20
-2.508274
 30
0.0
 42
0.048509
  0
VERTEX
  8
0
  5
1015
  6
CONTINUOUS
 62
7
 10
-0.301873
 20
-2.48638
 30
0.0
 42
0.048509
  0
SEQEND
  8
0
  5
1016
  0
POLYLINE
  8
0
  5
1018
  6
CONTINUOUS
 62
7
 10
0.0
 20
0.0
 30
0.0
 66
1
 70
0
  0
VERTEX
  8
0
  5
1019
  6
CONTINUOUS
 62
7
 10
0.446899
 20
-2.261528
 30
0.0
 42
0.010267
  0
VERTEX
  8
0
  5
101A
  6
CONTINUOUS
 62
7
 10
0.4926
 20
-2.246774
 30
0.0
 42
0.010265
  0
VERTEX
  8
0
  5
101B
  6
CONTINUOUS
 62
7
 10
0.537663
 20
-2.230155
 30
0.0
 42
0.010265
  0
SEQEND
  8
0
  5
101C
  0
POLYLINE
  8
0
  5
101E
  6
CONTINUOUS
 62
7
 10
0.0
 20
0.0
 30
0.0
 66
1
 70
0
  0
VERTEX
  8
0
  5
101F
  6
CONTINUOUS
 62
7
 10
0.537663
 20
2.22974
 30
0.0
 42
0.010265
  0
VERTEX
  8
0
  5
1020
  6
CONTINUOUS
 62
7
 10
0.4926
 20
2.246359
 30
0.0
 42
0.010267
  0
VERTEX
  8
0
  5
1021
  6
CONTINUOUS
 62
7
 10
0.446899
 20
2.261113
 30
0.0
 42
0.010267
  0
SEQEND
  8
0
  5
1022
  0
POLYLINE
  8
0
  5
1024
  6
CONTINUOUS
 62
7
 10
0.0
 20
0.0
 30
0.0
 66
1
 70
0
  0
VERTEX
  8
0
  5
1025
  6
CONTINUOUS
 62
7
 10
1.137788
 20
-3.637653
 30
0.0
 42
0.018479
  0
VERTEX
  8
0
  5
1026
  6
CONTINUOUS
 62
7
 10
1.140507
 20
-3.666695
 30
0.0
 42
0.018483
  0
VERTEX
  8
0
  5
1027
  6
CONTINUOUS
 62
7
 10
1.145363
 20
-3.695455
 30
0.0
 42
0.018483
  0
SEQEND
  8
0
  5
1028
  0
POLYLINE
  8
0
  5
102A
  6
CONTINUOUS
 62
7
 10
0.0
 20
0.0
 30
0.0
 66
1
 70
0
  0
VERTEX
  8
0
  5
102B
  6
CONTINUOUS
 62
7
 10
1.145363
 20
3.695011
 30
0.0
 42
0.018483
  0
VERTEX
  8
0
  5
102C
  6
CONTINUOUS
 62
7
 10
1.140507
 20
3.666252
 30
0.0
 42
0.018479
  0
VERTEX
  8
0
  5
102D
  6
CONTINUOUS
 62
7
 10
1.137788
 20
3.637209
 30
0.0
 42
0.018479
  0
SEQEND
  8
0
  5
102E
  0
POLYLINE
  8
0
  5
1030
  6
CONTINUOUS
 62
7
 10
0.0
 20
0.0
 30
0.0
 66
1
 70
0
  0
VERTEX
  8
0
  5
1031
  6
CONTINUOUS
 62
7
 10
-1.339874
 20
12.200592
 30
0.0
 42
0.030124
  0
VERTEX
  8
0
  5
1032
  6
CONTINUOUS
 62
7
 10
1.211294
 20
11.00096
 30
0.0
 42
0.030147
  0
VERTEX
  8
0
  5
1033
  6
CONTINUOUS
 62
7
 10
3.887147
 20
10.117059
 30
0.0
 42
0.030147
  0
SEQEND
  8
0
  5
1034
  0
POLYLINE
  8
0
  5
1036
  6
CONTINUOUS
 62
7
 10
0.0
 20
0.0
 30
0.0
 66
1
 70
0
  0
VERTEX
  8
0
  5
1037
  6
CONTINUOUS
 62
7
 10
4.289491
 20
9.129728
 30
0.0
 42
0.026966
  0
VERTEX
  8
0
  5
1038
  6
CONTINUOUS
 62
7
 10
4.609593
 20
5.741055
 30
0.0
 42
0.026974
  0
VERTEX
  8
0
  5
1039
  6
CONTINUOUS
 62
7
 10
5.292498
 20
2.407019
 30
0.0
 42
0.026974
  0
SEQEND
  8
0
  5
103A
  0
POLYLINE
  8
0
  5
103C
  6
CONTINUOUS
 62
7
 10
0.0
 20
0.0
 30
0.0
 66
1
 70
0
  0
VERTEX
  8
0
  5
103D
  6
CONTINUOUS
 62
7
 10
5.292498
 20
-2.407434
 30
0.0
 42
0.026974
  0
VERTEX
  8
0
  5
103E
  6
CONTINUOUS
 62
7
 10
4.609593
 20
-5.74147
 30
0.0
 42
0.026966
  0
VERTEX
  8
0
  5
103F
  6
CONTINUOUS
 62
7
 10
4.289491
 20
-9.130143
 30
0.0
 42
0.026966
  0
SEQEND
  8
0
  5
1040
  0
POLYLINE
  8
0
  5
1042
  6
CONTINUOUS
 62
7
 10
0.0
 20
0.0
 30
0.0
 66
1
 70
0
  0
VERTEX
  8
0
  5
1043
  6
CONTINUOUS
 62
7
 10
3.887145
 20
-10.117474
 30
0.0
 42
0.030147
  0
VERTEX
  8
0
  5
1044
  6
CONTINUOUS
 62
7
 10
1.211293
 20
-11.001375
 30
0.0
 42
0.030124
  0
VERTEX
  8
0
  5
1045
  6
CONTINUOUS
 62
7
 10
-1.339875
 20
-12.201007
 30
0.0
 42
0.030124
  0
SEQEND
  8
0
  5
1046
  0
POLYLINE
  8
0
  5
1048
  6
CONTINUOUS
 62
7
 10
0.0
 20
0.0
 30
0.0
 66
1
 70
0
  0
VERTEX
  8
0
  5
1049
  6
CONTINUOUS
 62
7
 10
3.887111
 20
10.117078
 30
0.0
 42
0.018824
  0
VERTEX
  8
0
  5
104A
  6
CONTINUOUS
 62
7
 10
3.880905
 20
10.088035
 30
0.0
 42
0.01882
  0
VERTEX
  8
0
  5
104B
  6
CONTINUOUS
 62
7
 10
3.8769
 20
10.058603
 30
0.0
 42
0.01882
  0
SEQEND
  8
0
  5
104C
  0
POLYLINE
  8
0
  5
104E
  6
CONTINUOUS
 62
7
 10
0.0
 20
0.0
 30
0.0
 66
1
 70
0
  0
VERTEX
  8
0
  5
104F
  6
CONTINUOUS
 62
7
 10
3.8769
 20
-10.059018
 30
0.0
 42
0.01882
  0
VERTEX
  8
0
  5
1050
  6
CONTINUOUS
 62
7
 10
3.880905
 20
-10.08845
 30
0.0
 42
0.018824
  0
VERTEX
  8
0
  5
1051
  6
CONTINUOUS
 62
7
 10
3.887111
 20
-10.117493
 30
0.0
 42
0.018824
  0
SEQEND
  8
0
  5
1052
  0
POLYLINE
  8
0
  5
1054
  6
CONTINUOUS
 62
7
 10
0.0
 20
0.0
 30
0.0
 66
1
 70
0
  0
VERTEX
  8
0
  5
1055
  6
CONTINUOUS
 62
7
 10
-1.339857
 20
-12.201028
 30
0.0
 42
0.053785
  0
VERTEX
  8
0
  5
1056
  6
CONTINUOUS
 62
7
 10
-1.321284
 20
-12.11846
 30
0.0
 42
0.053761
  0
VERTEX
  8
0
  5
1057
  6
CONTINUOUS
 62
7
 10
-1.320742
 20
-12.03381
 30
0.0
 42
0.053782
  0
VERTEX
  8
0
  5
1058
  6
CONTINUOUS
 62
7
 10
-1.338256
 20
-11.951009
 30
0.0
 42
0.053845
  0
VERTEX
  8
0
  5
1059
  6
CONTINUOUS
 62
7
 10
-1.373015
 20
-11.873897
 30
0.0
 42
0.053939
  0
VERTEX
  8
0
  5
105A
  6
CONTINUOUS
 62
7
 10
-1.423404
 20
-11.806052
 30
0.0
 42
0.053939
  0
SEQEND
  8
0
  5
105B
  0
POLYLINE
  8
0
  5
105D
  6
CONTINUOUS
 62
7
 10
0.0
 20
0.0
 30
0.0
 66
1
 70
0
  0
VERTEX
  8
0
  5
105E
  6
CONTINUOUS
 62
7
 10
-1.423404
 20
11.805637
 30
0.0
 42
0.053939
  0
VERTEX
  8
0
  5
105F
  6
CONTINUOUS
 62
7
 10
-1.373015
 20
11.873482
 30
0.0
 42
0.053845
  0
VERTEX
  8
0
  5
1060
  6
CONTINUOUS
 62
7
 10
-1.338256
 20
11.950594
 30
0.0
 42
0.053782
  0
VERTEX
  8
0
  5
1061
  6
CONTINUOUS
 62
7
 10
-1.320742
 20
12.033395
 30
0.0
 42
0.053761
  0
VERTEX
  8
0
  5
1062
  6
CONTINUOUS
 62
7
 10
-1.321284
 20
12.118045
 30
0.0
 42
0.053785
  0
VERTEX
  8
0
  5
1063
  6
CONTINUOUS
 62
7
 10
-1.339857
 20
12.200613
 30
0.0
 42
0.053785
  0
SEQEND
  8
0
  5
1064
  0
POLYLINE
  8
0
  5
1066
  6
CONTINUOUS
 62
7
 10
0.0
 20
0.0
 30
0.0
 66
1
 70
0
  0
VERTEX
  8
0
  5
1067
  6
CONTINUOUS
 62
7
 10
-0.769243
 20
-5.918718
 30
0.0
 42
0.0475
  0
VERTEX
  8
0
  5
1068
  6
CONTINUOUS
 62
7
 10
-0.728972
 20
-6.023285
 30
0.0
 42
0.047567
  0
VERTEX
  8
0
  5
1069
  6
CONTINUOUS
 62
7
 10
-0.669721
 20
-6.118298
 30
0.0
 42
0.047647
  0
VERTEX
  8
0
  5
106A
  6
CONTINUOUS
 62
7
 10
-0.593634
 20
-6.20032
 30
0.0
 42
0.047731
  0
VERTEX
  8
0
  5
106B
  6
CONTINUOUS
 62
7
 10
-0.503465
 20
-6.266384
 30
0.0
 42
0.047804
  0
VERTEX
  8
0
  5
106C
  6
CONTINUOUS
 62
7
 10
-0.402475
 20
-6.314097
 30
0.0
 42
0.047858
  0
VERTEX
  8
0
  5
106D
  6
CONTINUOUS
 62
7
 10
-0.294319
 20
-6.341735
 30
0.0
 42
0.047884
  0
VERTEX
  8
0
  5
106E
  6
CONTINUOUS
 62
7
 10
-0.182911
 20
-6.348297
 30
0.0
 42
0.047877
  0
VERTEX
  8
0
  5
106F
  6
CONTINUOUS
 62
7
 10
-0.072282
 20
-6.333545
 30
0.0
 42
0.04784
  0
VERTEX
  8
0
  5
1070
  6
CONTINUOUS
 62
7
 10
0.033565
 20
-6.298014
 30
0.0
 42
0.04784
  0
SEQEND
  8
0
  5
1071
  0
POLYLINE
  8
0
  5
1073
  6
CONTINUOUS
 62
7
 10
0.0
 20
0.0
 30
0.0
 66
1
 70
0
  0
VERTEX
  8
0
  5
1074
  6
CONTINUOUS
 62
7
 10
0.033565
 20
6.29757
 30
0.0
 42
0.04784
  0
VERTEX
  8
0
  5
1075
  6
CONTINUOUS
 62
7
 10
-0.072282
 20
6.333102
 30
0.0
 42
0.047877
  0
VERTEX
  8
0
  5
1076
  6
CONTINUOUS
 62
7
 10
-0.182911
 20
6.347853
 30
0.0
 42
0.047884
  0
VERTEX
  8
0
  5
1077
  6
CONTINUOUS
 62
7
 10
-0.294319
 20
6.341292
 30
0.0
 42
0.047858
  0
VERTEX
  8
0
  5
1078
  6
CONTINUOUS
 62
7
 10
-0.402475
 20
6.313654
 30
0.0
 42
0.047804
  0
VERTEX
  8
0
  5
1079
  6
CONTINUOUS
 62
7
 10
-0.503465
 20
6.26594
 30
0.0
 42
0.047731
  0
VERTEX
  8
0
  5
107A
  6
CONTINUOUS
 62
7
 10
-0.593634
 20
6.199877
 30
0.0
 42
0.047647
  0
VERTEX
  8
0
  5
107B
  6
CONTINUOUS
 62
7
 10
-0.669721
 20
6.117855
 30
0.0
 42
0.047567
  0
VERTEX
  8
0
  5
107C
  6
CONTINUOUS
 62
7
 10
-0.728972
 20
6.022841
 30
0.0
 42
0.0475
  0
VERTEX
  8
0
  5
107D
  6
CONTINUOUS
 62
7
 10
-0.769243
 20
5.918275
 30
0.0
 42
0.0475
  0
SEQEND
  8
0
  5
107E
  0
POLYLINE
  8
0
  5
1080
  6
CONTINUOUS
 62
7
 10
0.0
 20
0.0
 30
0.0
 66
1
 70
0
  0
VERTEX
  8
0
  5
1081
  6
CONTINUOUS
 62
7
 10
1.01812
 20
-5.858983
 30
0.0
 42
0.047942
  0
VERTEX
  8
0
  5
1082
  6
CONTINUOUS
 62
7
 10
1.213224
 20
-5.74849
 30
0.0
 42
0.047862
  0
VERTEX
  8
0
  5
1083
  6
CONTINUOUS
 62
7
 10
1.383877
 20
-5.602767
 30
0.0
 42
0.047778
  0
VERTEX
  8
0
  5
1084
  6
CONTINUOUS
 62
7
 10
1.523863
 20
-5.427122
 30
0.0
 42
0.047701
  0
VERTEX
  8
0
  5
1085
  6
CONTINUOUS
 62
7
 10
1.628082
 20
-5.227956
 30
0.0
 42
0.047701
  0
SEQEND
  8
0
  5
1086
  0
POLYLINE
  8
0
  5
1088
  6
CONTINUOUS
 62
7
 10
0.0
 20
0.0
 30
0.0
 66
1
 70
0
  0
VERTEX
  8
0
  5
1089
  6
CONTINUOUS
 62
7
 10
3.595894
 20
0.392796
 30
0.0
 42
0.006048
  0
VERTEX
  8
0
  5
108A
  6
CONTINUOUS
 62
7
 10
3.586072
 20
0.419661
 30
0.0
 42
0.006049
  0
VERTEX
  8
0
  5
108B
  6
CONTINUOUS
 62
7
 10
3.575604
 20
0.446278
 30
0.0
 42
0.006049
  0
SEQEND
  8
0
  5
108C
  0
POLYLINE
  8
0
  5
108E
  6
CONTINUOUS
 62
7
 10
0.0
 20
0.0
 30
0.0
 66
1
 70
0
  0
VERTEX
  8
0
  5
108F
  6
CONTINUOUS
 62
7
 10
3.575604
 20
-0.446693
 30
0.0
 42
0.006049
  0
VERTEX
  8
0
  5
1090
  6
CONTINUOUS
 62
7
 10
3.586072
 20
-0.420076
 30
0.0
 42
0.006048
  0
VERTEX
  8
0
  5
1091
  6
CONTINUOUS
 62
7
 10
3.595894
 20
-0.393211
 30
0.0
 42
0.006048
  0
SEQEND
  8
0
  5
1092
  0
POLYLINE
  8
0
  5
1094
  6
CONTINUOUS
 62
7
 10
0.0
 20
0.0
 30
0.0
 66
1
 70
0
  0
VERTEX
  8
0
  5
1095
  6
CONTINUOUS
 62
7
 10
1.628082
 20
5.227541
 30
0.0
 42
0.047701
  0
VERTEX
  8
0
  5
1096
  6
CONTINUOUS
 62
7
 10
1.523863
 20
5.426707
 30
0.0
 42
0.047778
  0
VERTEX
  8
0
  5
1097
  6
CONTINUOUS
 62
7
 10
1.383877
 20
5.602352
 30
0.0
 42
0.047862
  0
VERTEX
  8
0
  5
1098
  6
CONTINUOUS
 62
7
 10
1.213224
 20
5.748075
 30
0.0
 42
0.047942
  0
VERTEX
  8
0
  5
1099
  6
CONTINUOUS
 62
7
 10
1.01812
 20
5.858568
 30
0.0
 42
0.047942
  0
SEQEND
  8
0
  5
109A
  0
POLYLINE
  8
0
  5
109C
  6
CONTINUOUS
 62
7
 10
0.0
 20
0.0
 30
0.0
 66
1
 70
0
  0
VERTEX
  8
0
  5
109D
  6
CONTINUOUS
 62
7
 10
-1.256661
 20
-9.177438
 30
0.0
 42
0.05193
  0
VERTEX
  8
0
  5
109E
  6
CONTINUOUS
 62
7
 10
-1.258766
 20
-9.095682
 30
0.0
 42
0.051955
  0
VERTEX
  8
0
  5
109F
  6
CONTINUOUS
 62
7
 10
-1.277669
 20
-9.016135
 30
0.0
 42
0.052017
  0
VERTEX
  8
0
  5
10A0
  6
CONTINUOUS
 62
7
 10
-1.312551
 20
-8.942241
 30
0.0
 42
0.052106
  0
VERTEX
  8
0
  5
10A1
  6
CONTINUOUS
 62
7
 10
-1.361901
 20
-8.877201
 30
0.0
 42
0.052206
  0
VERTEX
  8
0
  5
10A2
  6
CONTINUOUS
 62
7
 10
-1.423583
 20
-8.823832
 30
0.0
 42
0.052206
  0
SEQEND
  8
0
  5
10A3
  0
POLYLINE
  8
0
  5
10A5
  6
CONTINUOUS
 62
7
 10
0.0
 20
0.0
 30
0.0
 66
1
 70
0
  0
VERTEX
  8
0
  5
10A6
  6
CONTINUOUS
 62
7
 10
-1.423583
 20
8.823417
 30
0.0
 42
0.052206
  0
VERTEX
  8
0
  5
10A7
  6
CONTINUOUS
 62
7
 10
-1.361901
 20
8.876786
 30
0.0
 42
0.052106
  0
VERTEX
  8
0
  5
10A8
  6
CONTINUOUS
 62
7
 10
-1.312551
 20
8.941826
 30
0.0
 42
0.052017
  0
VERTEX
  8
0
  5
10A9
  6
CONTINUOUS
 62
7
 10
-1.277669
 20
9.01572
 30
0.0
 42
0.051955
  0
VERTEX
  8
0
  5
10AA
  6
CONTINUOUS
 62
7
 10
-1.258766
 20
9.095267
 30
0.0
 42
0.05193
  0
VERTEX
  8
0
  5
10AB
  6
CONTINUOUS
 62
7
 10
-1.256661
 20
9.177023
 30
0.0
 42
0.05193
  0
SEQEND
  8
0
  5
10AC
  0
POLYLINE
  8
0
  5
10AE
  6
CONTINUOUS
 62
7
 10
0.0
 20
0.0
 30
0.0
 66
1
 70
0
  0
VERTEX
  8
0
  5
10AF
  6
CONTINUOUS
 62
7
 10
-4.350124
 20
-0.378524
 30
0.0
 42
0.004108
  0
VERTEX
  8
0
  5
10B0
  6
CONTINUOUS
 62
7
 10
-4.343975
 20
-0.376733
 30
0.0
 42
0.004108
  0
VERTEX
  8
0
  5
10B1
  6
CONTINUOUS
 62
7
 10
-4.337856
 20
-0.374842
 30
0.0
 42
0.004108
  0
SEQEND
  8
0
  5
10B2
  0
POLYLINE
  8
0
  5
10B4
  6
CONTINUOUS
 62
7
 10
0.0
 20
0.0
 30
0.0
 66
1
 70
0
  0
VERTEX
  8
0
  5
10B5
  6
CONTINUOUS
 62
7
 10
-4.337856
 20
0.374427
 30
0.0
 42
0.004108
  0
VERTEX
  8
0
  5
10B6
  6
CONTINUOUS
 62
7
 10
-4.343975
 20
0.376318
 30
0.0
 42
0.004108
  0
VERTEX
  8
0
  5
10B7
  6
CONTINUOUS
 62
7
 10
-4.350124
 20
0.378109
 30
0.0
 42
0.004108
  0
SEQEND
  8
0
  5
10B8
  0
POLYLINE
  8
0
  5
10BA
  6
CONTINUOUS
 62
7
 10
0.0
 20
0.0
 30
0.0
 66
1
 70
0
  0
VERTEX
  8
0
  5
10BB
  6
CONTINUOUS
 62
7
 10
2.697264
 20
-7.292843
 30
0.0
 42
0.023425
  0
VERTEX
  8
0
  5
10BC
  6
CONTINUOUS
 62
7
 10
0.67647
 20
-8.142343
 30
0.0
 42
0.023409
  0
VERTEX
  8
0
  5
10BD
  6
CONTINUOUS
 62
7
 10
-1.256678
 20
-9.177446
 30
0.0
 42
0.023409
  0
SEQEND
  8
0
  5
10BE
  0
POLYLINE
  8
0
  5
10C0
  6
CONTINUOUS
 62
7
 10
0.0
 20
0.0
 30
0.0
 66
1
 70
0
  0
VERTEX
  8
0
  5
10C1
  6
CONTINUOUS
 62
7
 10
5.803578
 20
-0.367918
 30
0.0
 42
0.035938
  0
VERTEX
  8
0
  5
10C2
  6
CONTINUOUS
 62
7
 10
4.287454
 20
-3.401294
 30
0.0
 42
0.035904
  0
VERTEX
  8
0
  5
10C3
  6
CONTINUOUS
 62
7
 10
3.220588
 20
-6.621958
 30
0.0
 42
0.035904
  0
SEQEND
  8
0
  5
10C4
  0
POLYLINE
  8
0
  5
10C6
  6
CONTINUOUS
 62
7
 10
0.0
 20
0.0
 30
0.0
 66
1
 70
0
  0
VERTEX
  8
0
  5
10C7
  6
CONTINUOUS
 62
7
 10
3.220588
 20
6.621543
 30
0.0
 42
0.035906
  0
VERTEX
  8
0
  5
10C8
  6
CONTINUOUS
 62
7
 10
4.287505
 20
3.400757
 30
0.0
 42
0.03594
  0
VERTEX
  8
0
  5
10C9
  6
CONTINUOUS
 62
7
 10
5.803712
 20
0.367276
 30
0.0
 42
0.03594
  0
SEQEND
  8
0
  5
10CA
  0
POLYLINE
  8
0
  5
10CC
  6
CONTINUOUS
 62
7
 10
0.0
 20
0.0
 30
0.0
 66
1
 70
0
  0
VERTEX
  8
0
  5
10CD
  6
CONTINUOUS
 62
7
 10
-1.256678
 20
9.177003
 30
0.0
 42
0.023409
  0
VERTEX
  8
0
  5
10CE
  6
CONTINUOUS
 62
7
 10
0.67647
 20
8.141899
 30
0.0
 42
0.023425
  0
VERTEX
  8
0
  5
10CF
  6
CONTINUOUS
 62
7
 10
2.697264
 20
7.292399
 30
0.0
 42
0.023425
  0
SEQEND
  8
0
  5
10D0
  0
POLYLINE
  8
0
  5
10D2
  6
CONTINUOUS
 62
7
 10
0.0
 20
0.0
 30
0.0
 66
1
 70
0
  0
VERTEX
  8
0
  5
10D3
  6
CONTINUOUS
 62
7
 10
5.945838
 20
-0.384779
 30
0.0
 42
0.034302
  0
VERTEX
  8
0
  5
10D4
  6
CONTINUOUS
 62
7
 10
4.763639
 20
-4.543728
 30
0.0
 42
0.034284
  0
VERTEX
  8
0
  5
10D5
  6
CONTINUOUS
 62
7
 10
4.160833
 20
-8.826341
 30
0.0
 42
0.034284
  0
SEQEND
  8
0
  5
10D6
  0
POLYLINE
  8
0
  5
10D8
  6
CONTINUOUS
 62
7
 10
0.0
 20
0.0
 30
0.0
 66
1
 70
0
  0
VERTEX
  8
0
  5
10D9
  6
CONTINUOUS
 62
7
 10
3.624962
 20
-9.467448
 30
0.0
 42
0.034127
  0
VERTEX
  8
0
  5
10DA
  6
CONTINUOUS
 62
7
 10
1.112402
 20
-10.334827
 30
0.0
 42
0.034096
  0
VERTEX
  8
0
  5
10DB
  6
CONTINUOUS
 62
7
 10
-1.259957
 20
-11.536341
 30
0.0
 42
0.034096
  0
SEQEND
  8
0
  5
10DC
  0
POLYLINE
  8
0
  5
10DE
  6
CONTINUOUS
 62
7
 10
0.0
 20
0.0
 30
0.0
 66
1
 70
0
  0
VERTEX
  8
0
  5
10DF
  6
CONTINUOUS
 62
7
 10
-1.259957
 20
11.535926
 30
0.0
 42
0.034096
  0
VERTEX
  8
0
  5
10E0
  6
CONTINUOUS
 62
7
 10
1.112402
 20
10.334412
 30
0.0
 42
0.034127
  0
VERTEX
  8
0
  5
10E1
  6
CONTINUOUS
 62
7
 10
3.624962
 20
9.467033
 30
0.0
 42
0.034127
  0
SEQEND
  8
0
  5
10E2
  0
POLYLINE
  8
0
  5
10E4
  6
CONTINUOUS
 62
7
 10
0.0
 20
0.0
 30
0.0
 66
1
 70
0
  0
VERTEX
  8
0
  5
10E5
  6
CONTINUOUS
 62
7
 10
4.160833
 20
8.825897
 30
0.0
 42
0.034284
  0
VERTEX
  8
0
  5
10E6
  6
CONTINUOUS
 62
7
 10
4.763639
 20
4.543285
 30
0.0
 42
0.034302
  0
VERTEX
  8
0
  5
10E7
  6
CONTINUOUS
 62
7
 10
5.945838
 20
0.384336
 30
0.0
 42
0.034302
  0
SEQEND
  8
0
  5
10E8
  0
POLYLINE
  8
0
  5
10EA
  6
CONTINUOUS
 62
7
 10
0.0
 20
0.0
 30
0.0
 66
1
 70
0
  0
VERTEX
  8
0
  5
10EB
  6
CONTINUOUS
 62
7
 10
5.945814
 20
0.384366
 30
0.0
 42
0.034449
  0
VERTEX
  8
0
  5
10EC
  6
CONTINUOUS
 62
7
 10
5.894217
 20
0.369702
 30
0.0
 42
0.034422
  0
VERTEX
  8
0
  5
10ED
  6
CONTINUOUS
 62
7
 10
5.845101
 20
0.348086
 30
0.0
 42
0.034422
  0
SEQEND
  8
0
  5
10EE
  0
POLYLINE
  8
0
  5
10F0
  6
CONTINUOUS
 62
7
 10
0.0
 20
0.0
 30
0.0
 66
1
 70
0
  0
VERTEX
  8
0
  5
10F1
  6
CONTINUOUS
 62
7
 10
5.845155
 20
-0.348529
 30
0.0
 42
0.034402
  0
VERTEX
  8
0
  5
10F2
  6
CONTINUOUS
 62
7
 10
5.894246
 20
-0.370127
 30
0.0
 42
0.03443
  0
VERTEX
  8
0
  5
10F3
  6
CONTINUOUS
 62
7
 10
5.945814
 20
-0.38478
 30
0.0
 42
0.03443
  0
SEQEND
  8
0
  5
10F4
  0
POLYLINE
  8
0
  5
10F6
  6
CONTINUOUS
 62
7
 10
0.0
 20
0.0
 30
0.0
 66
1
 70
0
  0
VERTEX
  8
0
  5
10F7
  6
CONTINUOUS
 62
7
 10
-1.259924
 20
-11.536336
 30
0.0
 42
0.051738
  0
VERTEX
  8
0
  5
10F8
  6
CONTINUOUS
 62
7
 10
-1.261487
 20
-11.454868
 30
0.0
 42
0.051762
  0
VERTEX
  8
0
  5
10F9
  6
CONTINUOUS
 62
7
 10
-1.27974
 20
-11.375474
 30
0.0
 42
0.051823
  0
VERTEX
  8
0
  5
10FA
  6
CONTINUOUS
 62
7
 10
-1.313898
 20
-11.30157
 30
0.0
 42
0.05191
  0
VERTEX
  8
0
  5
10FB
  6
CONTINUOUS
 62
7
 10
-1.362493
 20
-11.236332
 30
0.0
 42
0.052009
  0
VERTEX
  8
0
  5
10FC
  6
CONTINUOUS
 62
7
 10
-1.423435
 20
-11.182565
 30
0.0
 42
0.052009
  0
SEQEND
  8
0
  5
10FD
  0
POLYLINE
  8
0
  5
10FF
  6
CONTINUOUS
 62
7
 10
0.0
 20
0.0
 30
0.0
 66
1
 70
0
  0
VERTEX
  8
0
  5
1100
  6
CONTINUOUS
 62
7
 10
-1.423435
 20
11.182121
 30
0.0
 42
0.052009
  0
VERTEX
  8
0
  5
1101
  6
CONTINUOUS
 62
7
 10
-1.362493
 20
11.235888
 30
0.0
 42
0.05191
  0
VERTEX
  8
0
  5
1102
  6
CONTINUOUS
 62
7
 10
-1.313898
 20
11.301126
 30
0.0
 42
0.051823
  0
VERTEX
  8
0
  5
1103
  6
CONTINUOUS
 62
7
 10
-1.27974
 20
11.375031
 30
0.0
 42
0.051762
  0
VERTEX
  8
0
  5
1104
  6
CONTINUOUS
 62
7
 10
-1.261487
 20
11.454424
 30
0.0
 42
0.051738
  0
VERTEX
  8
0
  5
1105
  6
CONTINUOUS
 62
7
 10
-1.259924
 20
11.535893
 30
0.0
 42
0.051738
  0
SEQEND
  8
0
  5
1106
  0
POLYLINE
  8
0
  5
1108
  6
CONTINUOUS
 62
7
 10
0.0
 20
0.0
 30
0.0
 66
1
 70
0
  0
VERTEX
  8
0
  5
1109
  6
CONTINUOUS
 62
7
 10
-0.478274
 20
-8.733669
 30
0.0
 42
0.048075
  0
VERTEX
  8
0
  5
110A
  6
CONTINUOUS
 62
7
 10
-0.371043
 20
-8.766595
 30
0.0
 42
0.048108
  0
VERTEX
  8
0
  5
110B
  6
CONTINUOUS
 62
7
 10
-0.259536
 20
-8.778424
 30
0.0
 42
0.04811
  0
VERTEX
  8
0
  5
110C
  6
CONTINUOUS
 62
7
 10
-0.147825
 20
-8.768724
 30
0.0
 42
0.048079
  0
VERTEX
  8
0
  5
110D
  6
CONTINUOUS
 62
7
 10
-0.039991
 20
-8.737849
 30
0.0
 42
0.048079
  0
SEQEND
  8
0
  5
110E
  0
POLYLINE
  8
0
  5
1110
  6
CONTINUOUS
 62
7
 10
0.0
 20
0.0
 30
0.0
 66
1
 70
0
  0
VERTEX
  8
0
  5
1111
  6
CONTINUOUS
 62
7
 10
-0.039991
 20
8.737434
 30
0.0
 42
0.048079
  0
VERTEX
  8
0
  5
1112
  6
CONTINUOUS
 62
7
 10
-0.147825
 20
8.768309
 30
0.0
 42
0.04811
  0
VERTEX
  8
0
  5
1113
  6
CONTINUOUS
 62
7
 10
-0.259536
 20
8.778009
 30
0.0
 42
0.048108
  0
VERTEX
  8
0
  5
1114
  6
CONTINUOUS
 62
7
 10
-0.371043
 20
8.76618
 30
0.0
 42
0.048075
  0
VERTEX
  8
0
  5
1115
  6
CONTINUOUS
 62
7
 10
-0.478274
 20
8.733254
 30
0.0
 42
0.048075
  0
SEQEND
  8
0
  5
1116
  0
POLYLINE
  8
0
  5
1118
  6
CONTINUOUS
 62
7
 10
0.0
 20
0.0
 30
0.0
 66
1
 70
0
  0
VERTEX
  8
0
  5
1119
  6
CONTINUOUS
 62
7
 10
1.221639
 20
-8.241381
 30
0.0
 42
0.046036
  0
VERTEX
  8
0
  5
111A
  6
CONTINUOUS
 62
7
 10
1.605997
 20
-8.047608
 30
0.0
 42
0.045965
  0
VERTEX
  8
0
  5
111B
  6
CONTINUOUS
 62
7
 10
1.948706
 20
-7.786625
 30
0.0
 42
0.045888
  0
VERTEX
  8
0
  5
111C
  6
CONTINUOUS
 62
7
 10
2.23826
 20
-7.467195
 30
0.0
 42
0.045888
  0
SEQEND
  8
0
  5
111D
  0
POLYLINE
  8
0
  5
111F
  6
CONTINUOUS
 62
7
 10
0.0
 20
0.0
 30
0.0
 66
1
 70
0
  0
VERTEX
  8
0
  5
1120
  6
CONTINUOUS
 62
7
 10
2.23826
 20
7.466751
 30
0.0
 42
0.045888
  0
VERTEX
  8
0
  5
1121
  6
CONTINUOUS
 62
7
 10
1.948706
 20
7.786182
 30
0.0
 42
0.045965
  0
VERTEX
  8
0
  5
1122
  6
CONTINUOUS
 62
7
 10
1.605996
 20
8.047165
 30
0.0
 42
0.046036
  0
VERTEX
  8
0
  5
1123
  6
CONTINUOUS
 62
7
 10
1.221639
 20
8.240938
 30
0.0
 42
0.046036
  0
SEQEND
  8
0
  5
1124
  0
POLYLINE
  8
0
  5
1126
  6
CONTINUOUS
 62
3
 10
0.0
 20
0.0
 30
0.0
 66
1
 70
0
  0
VERTEX
  8
0
  5
1127
  6
CONTINUOUS
 62
3
 10
-6.392824
 20
0.043119
 30
0.0
 42
0.046375
  0
VERTEX
  8
0
  5
1128
  6
CONTINUOUS
 62
3
 10
-6.398208
 20
0.014403
 30
0.0
 42
0.04636
  0
VERTEX
  8
0
  5
1129
  6
CONTINUOUS
 62
3
 10
-6.398208
 20
-0.014818
 30
0.0
 42
0.046375
  0
VERTEX
  8
0
  5
112A
  6
CONTINUOUS
 62
3
 10
-6.392824
 20
-0.043534
 30
0.0
 42
0.046375
  0
SEQEND
  8
0
  5
112B
  0
POLYLINE
  8
0
  5
112D
  6
CONTINUOUS
 62
3
 10
0.0
 20
0.0
 30
0.0
 66
1
 70
0
  0
VERTEX
  8
0
  5
112E
  6
CONTINUOUS
 62
3
 10
-6.376446
 20
0.043119
 30
0.0
 42
0.046375
  0
VERTEX
  8
0
  5
112F
  6
CONTINUOUS
 62
3
 10
-6.38183
 20
0.014403
 30
0.0
 42
0.04636
  0
VERTEX
  8
0
  5
1130
  6
CONTINUOUS
 62
3
 10
-6.38183
 20
-0.014818
 30
0.0
 42
0.046375
  0
VERTEX
  8
0
  5
1131
  6
CONTINUOUS
 62
3
 10
-6.376446
 20
-0.043534
 30
0.0
 42
0.046375
  0
SEQEND
  8
0
  5
1132
  0
LINE
  8
0
  5
1134
  6
CONTINUOUS
 62
4
 10
1.6904
 20
9.1074
 30
0.0
 11
-0.7279
 21
10.0175
 31
0.0
  0
LINE
  8
0
  5
1136
  6
CONTINUOUS
 62
4
 10
5.2222
 20
0.2819
 30
0.0
 11
5.2641
 21
0.2203
 31
0.0
  0
LINE
  8
0
  5
1138
  6
CONTINUOUS
 62
4
 10
5.2013
 20
-0.5794
 30
0.0
 11
5.2431
 21
-0.6409
 31
0.0
  0
LINE
  8
0
  5
113A
  6
CONTINUOUS
 62
4
 10
5.3688
 20
0.2408
 30
0.0
 11
5.306
 21
0.3434
 31
0.0
  0
LINE
  8
0
  5
113C
  6
CONTINUOUS
 62
4
 10
5.3688
 20
-0.6204
 30
0.0
 11
5.3269
 21
-0.5384
 31
0.0
  0
LINE
  8
0
  5
113E
  6
CONTINUOUS
 62
4
 10
4.4055
 20
1.1431
 30
0.0
 11
4.9709
 21
0.6509
 31
0.0
  0
LINE
  8
0
  5
1140
  6
CONTINUOUS
 62
4
 10
4.9709
 20
0.7945
 30
0.0
 11
4.573
 21
1.1431
 31
0.0
  0
LINE
  8
0
  5
1142
  6
CONTINUOUS
 62
4
 10
5.306
 20
0.3434
 30
0.0
 11
5.2431
 21
0.4049
 31
0.0
  0
LINE
  8
0
  5
1144
  6
CONTINUOUS
 62
4
 10
5.3269
 20
-0.5384
 30
0.0
 11
5.2431
 21
-0.4563
 31
0.0
  0
LINE
  8
0
  5
1146
  6
CONTINUOUS
 62
4
 10
4.4892
 20
-0.1077
 30
0.0
 11
4.5521
 21
-0.1693
 31
0.0
  0
LINE
  8
0
  5
1148
  6
CONTINUOUS
 62
4
 10
4.4683
 20
-1.01
 30
0.0
 11
4.5521
 21
-1.092
 31
0.0
  0
LINE
  8
0
  5
114A
  6
CONTINUOUS
 62
4
 10
4.5939
 20
-0.969
 30
0.0
 11
4.5521
 21
-0.9075
 31
0.0
  0
LINE
  8
0
  5
114C
  6
CONTINUOUS
 62
4
 10
4.573
 20
-0.0462
 30
0.0
 11
4.5311
 21
0.0153
 31
0.0
  0
LINE
  8
0
  5
114E
  6
CONTINUOUS
 62
4
 10
4.4264
 20
-0.0052
 30
0.0
 11
4.4892
 21
-0.1077
 31
0.0
  0
LINE
  8
0
  5
1150
  6
CONTINUOUS
 62
4
 10
4.4264
 20
-0.928
 30
0.0
 11
4.4683
 21
-1.01
 31
0.0
  0
LINE
  8
0
  5
1152
  6
CONTINUOUS
 62
4
 10
4.5521
 20
-0.9075
 30
0.0
 11
4.5311
 21
-0.8459
 31
0.0
  0
LINE
  8
0
  5
1154
  6
CONTINUOUS
 62
4
 10
5.2431
 20
0.4049
 30
0.0
 11
5.1594
 21
0.4459
 31
0.0
  0
LINE
  8
0
  5
1156
  6
CONTINUOUS
 62
4
 10
5.0965
 20
0.3639
 30
0.0
 11
5.2222
 21
0.2819
 31
0.0
  0
LINE
  8
0
  5
1158
  6
CONTINUOUS
 62
4
 10
4.6987
 20
-0.1282
 30
0.0
 11
4.573
 21
-0.0462
 31
0.0
  0
LINE
  8
0
  5
115A
  6
CONTINUOUS
 62
4
 10
5.1384
 20
-0.5384
 30
0.0
 11
5.2013
 21
-0.5794
 31
0.0
  0
LINE
  8
0
  5
115C
  6
CONTINUOUS
 62
4
 10
-1.8126
 20
8.4551
 30
0.0
 11
-3.0456
 21
8.4551
 31
0.0
  0
LINE
  8
0
  5
115E
  6
CONTINUOUS
 62
4
 10
5.1594
 20
0.4459
 30
0.0
 11
5.0965
 21
0.4664
 31
0.0
  0
LINE
  8
0
  5
1160
  6
CONTINUOUS
 62
4
 10
5.2431
 20
-0.4563
 30
0.0
 11
5.1594
 21
-0.4153
 31
0.0
  0
LINE
  8
0
  5
1162
  6
CONTINUOUS
 62
4
 10
4.5521
 20
-0.1693
 30
0.0
 11
4.6358
 21
-0.2103
 31
0.0
  0
LINE
  8
0
  5
1164
  6
CONTINUOUS
 62
4
 10
5.0965
 20
0.4664
 30
0.0
 11
4.9918
 21
0.4869
 31
0.0
  0
LINE
  8
0
  5
1166
  6
CONTINUOUS
 62
4
 10
4.6358
 20
-0.2103
 30
0.0
 11
4.6987
 21
-0.2308
 31
0.0
  0
LINE
  8
0
  5
1168
  6
CONTINUOUS
 62
4
 10
4.6568
 20
-0.9895
 30
0.0
 11
4.5939
 21
-0.969
 31
0.0
  0
LINE
  8
0
  5
116A
  6
CONTINUOUS
 62
4
 10
-1.8126
 20
-8.2772
 30
0.0
 11
-1.4518
 21
-9.481
 31
0.0
  0
LINE
  8
0
  5
116C
  6
CONTINUOUS
 62
4
 10
4.9709
 20
0.3844
 30
0.0
 11
5.0965
 21
0.3639
 31
0.0
  0
LINE
  8
0
  5
116E
  6
CONTINUOUS
 62
4
 10
4.8243
 20
-0.1488
 30
0.0
 11
4.6987
 21
-0.1282
 31
0.0
  0
LINE
  8
0
  5
1170
  6
CONTINUOUS
 62
4
 10
4.6987
 20
-0.2308
 30
0.0
 11
4.8034
 21
-0.2513
 31
0.0
  0
LINE
  8
0
  5
1172
  6
CONTINUOUS
 62
4
 10
4.5521
 20
-1.092
 30
0.0
 11
4.6358
 21
-1.1125
 31
0.0
  0
LINE
  8
0
  5
1174
  6
CONTINUOUS
 62
4
 10
-3.0456
 20
-8.2772
 30
0.0
 11
-2.0095
 21
-11.7345
 31
0.0
  0
LINE
  8
0
  5
1176
  6
CONTINUOUS
 62
4
 10
5.0965
 20
1.4712
 30
0.0
 11
4.9709
 21
1.4712
 31
0.0
  0
LINE
  8
0
  5
1178
  6
CONTINUOUS
 62
4
 10
5.3897
 20
1.2661
 30
0.0
 11
5.0965
 21
1.2661
 31
0.0
  0
LINE
  8
0
  5
117A
  6
CONTINUOUS
 62
4
 10
4.9709
 20
1.2661
 30
0.0
 11
4.4055
 21
1.2661
 31
0.0
  0
LINE
  8
0
  5
117C
  6
CONTINUOUS
 62
4
 10
4.573
 20
1.1431
 30
0.0
 11
4.9709
 21
1.1431
 31
0.0
  0
LINE
  8
0
  5
117E
  6
CONTINUOUS
 62
4
 10
5.0965
 20
1.1431
 30
0.0
 11
5.3897
 21
1.1431
 31
0.0
  0
LINE
  8
0
  5
1180
  6
CONTINUOUS
 62
4
 10
4.9709
 20
0.6509
 30
0.0
 11
5.0965
 21
0.6509
 31
0.0
  0
LINE
  8
0
  5
1182
  6
CONTINUOUS
 62
4
 10
4.9918
 20
0.4869
 30
0.0
 11
4.8034
 21
0.4869
 31
0.0
  0
LINE
  8
0
  5
1184
  6
CONTINUOUS
 62
4
 10
4.8243
 20
0.3844
 30
0.0
 11
4.9709
 21
0.3844
 31
0.0
  0
LINE
  8
0
  5
1186
  6
CONTINUOUS
 62
4
 10
4.9709
 20
-0.1488
 30
0.0
 11
4.8243
 21
-0.1488
 31
0.0
  0
LINE
  8
0
  5
1188
  6
CONTINUOUS
 62
4
 10
4.8034
 20
-0.2513
 30
0.0
 11
4.9918
 21
-0.2513
 31
0.0
  0
LINE
  8
0
  5
118A
  6
CONTINUOUS
 62
4
 10
5.1594
 20
-0.4153
 30
0.0
 11
5.0547
 21
-0.4153
 31
0.0
  0
LINE
  8
0
  5
118C
  6
CONTINUOUS
 62
4
 10
5.0756
 20
-0.5384
 30
0.0
 11
5.1384
 21
-0.5384
 31
0.0
  0
LINE
  8
0
  5
118E
  6
CONTINUOUS
 62
4
 10
4.6987
 20
-0.9895
 30
0.0
 11
4.6568
 21
-0.9895
 31
0.0
  0
LINE
  8
0
  5
1190
  6
CONTINUOUS
 62
4
 10
4.6358
 20
-1.1125
 30
0.0
 11
4.7196
 21
-1.1125
 31
0.0
  0
LINE
  8
0
  5
1192
  6
CONTINUOUS
 62
4
 10
4.8034
 20
0.4869
 30
0.0
 11
4.6987
 21
0.4664
 31
0.0
  0
LINE
  8
0
  5
1194
  6
CONTINUOUS
 62
4
 10
4.6987
 20
0.3639
 30
0.0
 11
4.8243
 21
0.3844
 31
0.0
  0
LINE
  8
0
  5
1196
  6
CONTINUOUS
 62
4
 10
5.0965
 20
-0.1282
 30
0.0
 11
4.9709
 21
-0.1488
 31
0.0
  0
LINE
  8
0
  5
1198
  6
CONTINUOUS
 62
4
 10
4.7196
 20
-1.1125
 30
0.0
 11
4.8034
 21
-1.092
 31
0.0
  0
LINE
  8
0
  5
119A
  6
CONTINUOUS
 62
4
 10
5.1175
 20
-1.174
 30
0.0
 11
5.2013
 21
-1.1535
 31
0.0
  0
LINE
  8
0
  5
119C
  6
CONTINUOUS
 62
4
 10
4.9918
 20
-0.2513
 30
0.0
 11
5.0965
 21
-0.2308
 31
0.0
  0
LINE
  8
0
  5
119E
  6
CONTINUOUS
 62
4
 10
-3.0456
 20
-8.2772
 30
0.0
 11
-1.8126
 21
-8.2772
 31
0.0
  0
LINE
  8
0
  5
11A0
  6
CONTINUOUS
 62
4
 10
4.6987
 20
0.4664
 30
0.0
 11
4.6358
 21
0.4459
 31
0.0
  0
LINE
  8
0
  5
11A2
  6
CONTINUOUS
 62
4
 10
5.0965
 20
-0.2308
 30
0.0
 11
5.1594
 21
-0.2103
 31
0.0
  0
LINE
  8
0
  5
11A4
  6
CONTINUOUS
 62
4
 10
4.6358
 20
-0.4768
 30
0.0
 11
4.573
 21
-0.4973
 31
0.0
  0
LINE
  8
0
  5
11A6
  6
CONTINUOUS
 62
4
 10
4.7615
 20
-0.969
 30
0.0
 11
4.6987
 21
-0.9895
 31
0.0
  0
LINE
  8
0
  5
11A8
  6
CONTINUOUS
 62
4
 10
5.1803
 20
-1.0305
 30
0.0
 11
5.1175
 21
-1.051
 31
0.0
  0
LINE
  8
0
  5
11AA
  6
CONTINUOUS
 62
4
 10
4.6358
 20
0.4459
 30
0.0
 11
4.5521
 21
0.4049
 31
0.0
  0
LINE
  8
0
  5
11AC
  6
CONTINUOUS
 62
4
 10
5.1594
 20
-0.2103
 30
0.0
 11
5.2431
 21
-0.1693
 31
0.0
  0
LINE
  8
0
  5
11AE
  6
CONTINUOUS
 62
4
 10
4.573
 20
0.2819
 30
0.0
 11
4.6987
 21
0.3639
 31
0.0
  0
LINE
  8
0
  5
11B0
  6
CONTINUOUS
 62
4
 10
4.5939
 20
-0.6204
 30
0.0
 11
4.6358
 21
-0.5999
 31
0.0
  0
LINE
  8
0
  5
11B2
  6
CONTINUOUS
 62
4
 10
5.0547
 20
-0.4153
 30
0.0
 11
4.9709
 21
-0.4563
 31
0.0
  0
LINE
  8
0
  5
11B4
  6
CONTINUOUS
 62
4
 10
4.573
 20
-0.4973
 30
0.0
 11
4.4892
 21
-0.5589
 31
0.0
  0
LINE
  8
0
  5
11B6
  6
CONTINUOUS
 62
4
 10
5.2222
 20
-0.0462
 30
0.0
 11
5.0965
 21
-0.1282
 31
0.0
  0
LINE
  8
0
  5
11B8
  6
CONTINUOUS
 62
4
 10
5.0128
 20
-0.5794
 30
0.0
 11
5.0756
 21
-0.5384
 31
0.0
  0
LINE
  8
0
  5
11BA
  6
CONTINUOUS
 62
4
 10
5.2013
 20
-1.1535
 30
0.0
 11
5.306
 21
-1.092
 31
0.0
  0
LINE
  8
0
  5
11BC
  6
CONTINUOUS
 62
4
 10
-0.7279
 20
-9.8395
 30
0.0
 11
1.6904
 21
-8.9295
 31
0.0
  0
LINE
  8
0
  5
11BE
  6
CONTINUOUS
 62
4
 10
-2.0095
 20
11.9125
 30
0.0
 11
-3.0456
 21
8.4551
 31
0.0
  0
LINE
  8
0
  5
11C0
  6
CONTINUOUS
 62
4
 10
4.5521
 20
0.4049
 30
0.0
 11
4.4892
 21
0.3434
 31
0.0
  0
LINE
  8
0
  5
11C2
  6
CONTINUOUS
 62
4
 10
5.2431
 20
-0.1693
 30
0.0
 11
5.306
 21
-0.1077
 31
0.0
  0
LINE
  8
0
  5
11C4
  6
CONTINUOUS
 62
4
 10
4.5521
 20
-0.6614
 30
0.0
 11
4.5939
 21
-0.6204
 31
0.0
  0
LINE
  8
0
  5
11C6
  6
CONTINUOUS
 62
4
 10
4.9709
 20
-0.4563
 30
0.0
 11
4.8871
 21
-0.5384
 31
0.0
  0
LINE
  8
0
  5
11C8
  6
CONTINUOUS
 62
4
 10
4.8034
 20
-1.092
 30
0.0
 11
4.8871
 21
-1.01
 31
0.0
  0
LINE
  8
0
  5
11CA
  6
CONTINUOUS
 62
4
 10
5.2431
 20
-0.969
 30
0.0
 11
5.1803
 21
-1.0305
 31
0.0
  0
LINE
  8
0
  5
11CC
  6
CONTINUOUS
 62
4
 10
-1.4518
 20
9.6589
 30
0.0
 11
-1.8126
 21
8.4551
 31
0.0
  0
LINE
  8
0
  5
11CE
  6
CONTINUOUS
 62
4
 10
4.4892
 20
-0.5589
 30
0.0
 11
4.4264
 21
-0.6409
 31
0.0
  0
LINE
  8
0
  5
11D0
  6
CONTINUOUS
 62
4
 10
4.4892
 20
0.3434
 30
0.0
 11
4.4264
 21
0.2408
 31
0.0
  0
LINE
  8
0
  5
11D2
  6
CONTINUOUS
 62
4
 10
5.306
 20
-0.1077
 30
0.0
 11
5.3688
 21
-0.0052
 31
0.0
  0
LINE
  8
0
  5
11D4
  6
CONTINUOUS
 62
4
 10
4.5311
 20
0.2203
 30
0.0
 11
4.573
 21
0.2819
 31
0.0
  0
LINE
  8
0
  5
11D6
  6
CONTINUOUS
 62
4
 10
5.2641
 20
0.0153
 30
0.0
 11
5.2222
 21
-0.0462
 31
0.0
  0
LINE
  8
0
  5
11D8
  6
CONTINUOUS
 62
4
 10
4.9709
 20
-0.6409
 30
0.0
 11
5.0128
 21
-0.5794
 31
0.0
  0
LINE
  8
0
  5
11DA
  6
CONTINUOUS
 62
4
 10
4.8034
 20
-0.9075
 30
0.0
 11
4.7615
 21
-0.969
 31
0.0
  0
LINE
  8
0
  5
11DC
  6
CONTINUOUS
 62
4
 10
4.8871
 20
-0.5384
 30
0.0
 11
4.8452
 21
-0.6204
 31
0.0
  0
LINE
  8
0
  5
11DE
  6
CONTINUOUS
 62
4
 10
4.8871
 20
-1.01
 30
0.0
 11
4.929
 21
-0.928
 31
0.0
  0
LINE
  8
0
  5
11E0
  6
CONTINUOUS
 62
4
 10
5.306
 20
-1.092
 30
0.0
 11
5.3688
 21
-0.9895
 31
0.0
  0
LINE
  8
0
  5
11E2
  6
CONTINUOUS
 62
4
 10
4.5311
 20
-0.7229
 30
0.0
 11
4.5521
 21
-0.6614
 31
0.0
  0
LINE
  8
0
  5
11E4
  6
CONTINUOUS
 62
4
 10
4.8243
 20
-0.8459
 30
0.0
 11
4.8034
 21
-0.9075
 31
0.0
  0
LINE
  8
0
  5
11E6
  6
CONTINUOUS
 62
4
 10
4.4264
 20
0.2408
 30
0.0
 11
4.4055
 21
0.1178
 31
0.0
  0
LINE
  8
0
  5
11E8
  6
CONTINUOUS
 62
4
 10
4.202
 20
-0.2531
 30
0.0
 11
2.9356
 21
-7.4292
 31
0.0
  0
LINE
  8
0
  5
11EA
  6
CONTINUOUS
 62
4
 10
4.5102
 20
0.1178
 30
0.0
 11
4.5311
 21
0.2203
 31
0.0
  0
LINE
  8
0
  5
11EC
  6
CONTINUOUS
 62
4
 10
4.4264
 20
-0.6409
 30
0.0
 11
4.4055
 21
-0.7434
 31
0.0
  0
LINE
  8
0
  5
11EE
  6
CONTINUOUS
 62
4
 10
4.8452
 20
-0.6204
 30
0.0
 11
4.8243
 21
-0.7229
 31
0.0
  0
LINE
  8
0
  5
11F0
  6
CONTINUOUS
 62
4
 10
5.285
 20
0.1178
 30
0.0
 11
5.2641
 21
0.0153
 31
0.0
  0
LINE
  8
0
  5
11F2
  6
CONTINUOUS
 62
4
 10
5.3688
 20
-0.9895
 30
0.0
 11
5.3897
 21
-0.8869
 31
0.0
  0
LINE
  8
0
  5
11F4
  6
CONTINUOUS
 62
4
 10
4.929
 20
-0.928
 30
0.0
 11
4.95
 21
-0.8459
 31
0.0
  0
LINE
  8
0
  5
11F6
  6
CONTINUOUS
 62
4
 10
5.2641
 20
-0.8869
 30
0.0
 11
5.2431
 21
-0.969
 31
0.0
  0
LINE
  8
0
  5
11F8
  6
CONTINUOUS
 62
4
 10
4.95
 20
-0.7229
 30
0.0
 11
4.9709
 21
-0.6409
 31
0.0
  0
LINE
  8
0
  5
11FA
  6
CONTINUOUS
 62
4
 10
4.4055
 20
1.2661
 30
0.0
 11
4.4055
 21
1.1431
 31
0.0
  0
LINE
  8
0
  5
11FC
  6
CONTINUOUS
 62
4
 10
4.4055
 20
-0.7434
 30
0.0
 11
4.4055
 21
-0.8459
 31
0.0
  0
LINE
  8
0
  5
11FE
  6
CONTINUOUS
 62
4
 10
4.5311
 20
-0.8459
 30
0.0
 11
4.5311
 21
-0.7229
 31
0.0
  0
LINE
  8
0
  5
1200
  6
CONTINUOUS
 62
4
 10
4.6358
 20
-0.5999
 30
0.0
 11
4.6358
 21
-0.4768
 31
0.0
  0
LINE
  8
0
  5
1202
  6
CONTINUOUS
 62
4
 10
4.8243
 20
-0.7229
 30
0.0
 11
4.8243
 21
-0.8459
 31
0.0
  0
LINE
  8
0
  5
1204
  6
CONTINUOUS
 62
4
 10
4.95
 20
-0.8459
 30
0.0
 11
4.95
 21
-0.7229
 31
0.0
  0
LINE
  8
0
  5
1206
  6
CONTINUOUS
 62
4
 10
4.9709
 20
1.4712
 30
0.0
 11
4.9709
 21
1.2661
 31
0.0
  0
LINE
  8
0
  5
1208
  6
CONTINUOUS
 62
4
 10
4.9709
 20
1.1431
 30
0.0
 11
4.9709
 21
0.7945
 31
0.0
  0
LINE
  8
0
  5
120A
  6
CONTINUOUS
 62
4
 10
5.0965
 20
0.6509
 30
0.0
 11
5.0965
 21
1.1431
 31
0.0
  0
LINE
  8
0
  5
120C
  6
CONTINUOUS
 62
4
 10
5.0965
 20
1.2661
 30
0.0
 11
5.0965
 21
1.4712
 31
0.0
  0
LINE
  8
0
  5
120E
  6
CONTINUOUS
 62
4
 10
5.1175
 20
-1.051
 30
0.0
 11
5.1175
 21
-1.174
 31
0.0
  0
LINE
  8
0
  5
1210
  6
CONTINUOUS
 62
4
 10
5.2641
 20
-0.7229
 30
0.0
 11
5.2641
 21
-0.8869
 31
0.0
  0
LINE
  8
0
  5
1212
  6
CONTINUOUS
 62
4
 10
5.3688
 20
-0.0052
 30
0.0
 11
5.3897
 21
0.1178
 31
0.0
  0
LINE
  8
0
  5
1214
  6
CONTINUOUS
 62
4
 10
4.4055
 20
-0.8459
 30
0.0
 11
4.4264
 21
-0.928
 31
0.0
  0
LINE
  8
0
  5
1216
  6
CONTINUOUS
 62
4
 10
5.2431
 20
-0.6409
 30
0.0
 11
5.2641
 21
-0.7229
 31
0.0
  0
LINE
  8
0
  5
1218
  6
CONTINUOUS
 62
4
 10
4.5311
 20
0.0153
 30
0.0
 11
4.5102
 21
0.1178
 31
0.0
  0
LINE
  8
0
  5
121A
  6
CONTINUOUS
 62
4
 10
5.3897
 20
-0.7229
 30
0.0
 11
5.3688
 21
-0.6204
 31
0.0
  0
LINE
  8
0
  5
121C
  6
CONTINUOUS
 62
4
 10
5.2641
 20
0.2203
 30
0.0
 11
5.285
 21
0.1178
 31
0.0
  0
LINE
  8
0
  5
121E
  6
CONTINUOUS
 62
4
 10
2.9356
 20
7.6072
 30
0.0
 11
4.202
 21
0.4311
 31
0.0
  0
LINE
  8
0
  5
1220
  6
CONTINUOUS
 62
4
 10
4.4055
 20
0.1178
 30
0.0
 11
4.4264
 21
-0.0052
 31
0.0
  0
LINE
  8
0
  5
1222
  6
CONTINUOUS
 62
4
 10
5.3897
 20
0.1178
 30
0.0
 11
5.3688
 21
0.2408
 31
0.0
  0
LINE
  8
0
  5
1224
  6
CONTINUOUS
 62
4
 10
5.3897
 20
-0.8869
 30
0.0
 11
5.3897
 21
-0.7229
 31
0.0
  0
LINE
  8
0
  5
1226
  6
CONTINUOUS
 62
4
 10
5.3897
 20
1.1431
 30
0.0
 11
5.3897
 21
1.2661
 31
0.0
  0
ARC
  8
0
  5
1228
  6
CONTINUOUS
 62
4
 10
-0.922499
 20
9.500294
 30
0.0
 40
0.552587
 50
69.3779111111
 51
163.3173388889
  0
ARC
  8
0
  5
122A
  6
CONTINUOUS
 62
4
 10
9.926244
 20
33.068065
 30
0.0
 40
23.622047
 50
241.4778833333
 51
255.2403916667
  0
ARC
  8
0
  5
122C
  6
CONTINUOUS
 62
4
 10
35.783475
 20
10.510057
 30
0.0
 40
31.496063
 50
181.4106083333
 51
198.60535
  0
ARC
  8
0
  5
122E
  6
CONTINUOUS
 62
4
 10
6.061379
 20
0.088974
 30
0.0
 40
0.393701
 50
108.9634527778
 51
251.03655
  0
ARC
  8
0
  5
1230
  6
CONTINUOUS
 62
4
 10
35.783475
 20
-10.332109
 30
0.0
 40
31.496063
 50
161.39465
 51
178.5893916667
  0
ARC
  8
0
  5
1232
  6
CONTINUOUS
 62
4
 10
9.926244
 20
-32.890116
 30
0.0
 40
23.622047
 50
104.7596111111
 51
118.5221194444
  0
ARC
  8
0
  5
1234
  6
CONTINUOUS
 62
4
 10
-0.922499
 20
-9.322345
 30
0.0
 40
0.552587
 50
196.6826611111
 51
290.6220888889
  0
ARC
  8
0
  5
1236
  6
CONTINUOUS
 62
4
 10
-1.72567
 20
12.185314
 30
0.0
 40
0.393701
 50
223.8730722222
 51
18.9181277778
  0
ARC
  8
0
  5
1238
  6
CONTINUOUS
 62
4
 10
-1.72567
 20
-12.007365
 30
0.0
 40
0.393701
 50
341.081875
 51
136.1269305556
  0
ARC
  8
0
  5
123A
  6
CONTINUOUS
 62
4
 10
4.289726
 20
-9.950396
 30
0.0
 40
0.393701
 50
88.9474916667
 51
194.2821388889
  0
ARC
  8
0
  5
123C
  6
CONTINUOUS
 62
4
 10
4.289726
 20
10.128344
 30
0.0
 40
0.393701
 50
165.7178611111
 51
271.0525083333
  0
ARC
  8
0
  5
123E
  6
CONTINUOUS
 62
4
 10
2.26343
 20
0.088974
 30
0.0
 40
1.968504
 50
349.9920194444
 51
10.0079777778
  0
ARC
  8
0
  5
1240
  6
CONTINUOUS
 62
4
 10
0.997059
 20
-7.087132
 30
0.0
 40
1.968504
 50
290.6220888889
 51
349.9920194444
  0
ARC
  8
0
  5
1242
  6
CONTINUOUS
 62
4
 10
0.997059
 20
7.26508
 30
0.0
 40
1.968504
 50
10.0079805556
 51
69.3779111111
  0
ENDBLK
  8
0
  5
1243
  0
ENDSEC
  0
SECTION
  2
ENTITIES
  0
INSERT
  8
0
  5
2
  6
CONTINUOUS
 62
4
  2
*M0
 10
0.0
 20
0.0
 30
0.0
 41
1.0
 42
1.0
 43
1.0
 70
1
 71
1
  0
LINE
  8
0
  5
4
  6
CONTINUOUS
 62
4
 10
-11.8727
 20
23.0891
 30
0.0
 11
-12.7828
 21
20.6708
 31
0.0
  0
LINE
  8
0
  5
6
  6
CONTINUOUS
 62
4
 10
-3.0472
 20
26.6209
 30
0.0
 11
-2.9856
 21
26.6628
 31
0.0
  0
LINE
  8
0
  5
8
  6
CONTINUOUS
 62
4
 10
-2.1859
 20
26.6
 30
0.0
 11
-2.1244
 21
26.6418
 31
0.0
  0
LINE
  8
0
  5
A
  6
CONTINUOUS
 62
4
 10
-3.0061
 20
26.7675
 30
0.0
 11
-3.1087
 21
26.7047
 31
0.0
  0
LINE
  8
0
  5
C
  6
CONTINUOUS
 62
4
 10
-2.1449
 20
26.7675
 30
0.0
 11
-2.2269
 21
26.7256
 31
0.0
  0
LINE
  8
0
  5
E
  6
CONTINUOUS
 62
4
 10
-4.2854
 20
-18.9757
 30
0.0
 11
-4.1829
 21
-18.9966
 31
0.0
  0
LINE
  8
0
  5
10
  6
CONTINUOUS
 62
4
 10
-3.3012
 20
-18.9757
 30
0.0
 11
-3.1987
 21
-18.9966
 31
0.0
  0
LINE
  8
0
  5
12
  6
CONTINUOUS
 62
4
 10
-4.1829
 20
-18.871
 30
0.0
 11
-4.2649
 21
-18.85
 31
0.0
  0
LINE
  8
0
  5
14
  6
CONTINUOUS
 62
4
 10
-8.3147
 20
-18.1944
 30
0.0
 11
-4.441
 21
-19.4645
 31
0.0
  0
LINE
  8
0
  5
16
  6
CONTINUOUS
 62
4
 10
-3.2192
 20
-18.871
 30
0.0
 11
-3.2807
 21
-18.85
 31
0.0
  0
LINE
  8
0
  5
18
  6
CONTINUOUS
 62
4
 10
-3.0961
 20
-18.5778
 30
0.0
 11
-3.0346
 21
-18.5987
 31
0.0
  0
LINE
  8
0
  5
1A
  6
CONTINUOUS
 62
4
 10
-4.3675
 20
-18.9338
 30
0.0
 11
-4.2854
 21
-18.9757
 31
0.0
  0
LINE
  8
0
  5
1C
  6
CONTINUOUS
 62
4
 10
-3.4037
 20
-18.515
 30
0.0
 11
-3.3217
 21
-18.5568
 31
0.0
  0
LINE
  8
0
  5
1E
  6
CONTINUOUS
 62
4
 10
-3.8343
 20
-18.0752
 30
0.0
 11
-3.9163
 21
-18.0333
 31
0.0
  0
LINE
  8
0
  5
20
  6
CONTINUOUS
 62
4
 10
-2.9321
 20
-18.515
 30
0.0
 11
-3.0141
 21
-18.4731
 31
0.0
  0
LINE
  8
0
  5
22
  6
CONTINUOUS
 62
4
 10
-4.2649
 20
-18.85
 30
0.0
 11
-4.3265
 21
-18.8081
 31
0.0
  0
LINE
  8
0
  5
24
  6
CONTINUOUS
 62
4
 10
-3.9369
 20
-18.159
 30
0.0
 11
-3.8753
 21
-18.2008
 31
0.0
  0
LINE
  8
0
  5
26
  6
CONTINUOUS
 62
4
 10
-3.3012
 20
-18.4312
 30
0.0
 11
-3.3627
 21
-18.3893
 31
0.0
  0
LINE
  8
0
  5
28
  6
CONTINUOUS
 62
4
 10
-3.0346
 20
-18.5987
 30
0.0
 11
-2.9731
 21
-18.6406
 31
0.0
  0
LINE
  8
0
  5
2A
  6
CONTINUOUS
 62
4
 10
-3.3832
 20
-18.9128
 30
0.0
 11
-3.3012
 21
-18.9757
 31
0.0
  0
LINE
  8
0
  5
2C
  6
CONTINUOUS
 62
4
 10
-4.4495
 20
-18.85
 30
0.0
 11
-4.3675
 21
-18.9338
 31
0.0
  0
LINE
  8
0
  5
2E
  6
CONTINUOUS
 62
4
 10
-3.9084
 20
25.8042
 30
0.0
 11
-3.4162
 21
26.3696
 31
0.0
  0
LINE
  8
0
  5
30
  6
CONTINUOUS
 62
4
 10
-3.5598
 20
26.3696
 30
0.0
 11
-3.9084
 21
25.9717
 31
0.0
  0
LINE
  8
0
  5
32
  6
CONTINUOUS
 62
4
 10
-3.1087
 20
26.7047
 30
0.0
 11
-3.1702
 21
26.6418
 31
0.0
  0
LINE
  8
0
  5
34
  6
CONTINUOUS
 62
4
 10
-2.2269
 20
26.7256
 30
0.0
 11
-2.309
 21
26.6418
 31
0.0
  0
LINE
  8
0
  5
36
  6
CONTINUOUS
 62
4
 10
-2.6576
 20
25.8879
 30
0.0
 11
-2.596
 21
25.9508
 31
0.0
  0
LINE
  8
0
  5
38
  6
CONTINUOUS
 62
4
 10
-1.7553
 20
25.867
 30
0.0
 11
-1.6733
 21
25.9508
 31
0.0
  0
LINE
  8
0
  5
3A
  6
CONTINUOUS
 62
4
 10
-4.0614
 20
24.0588
 30
0.0
 11
-4.1439
 21
23.9794
 31
0.0
  0
LINE
  8
0
  5
3C
  6
CONTINUOUS
 62
4
 10
-3.1547
 20
24.039
 30
0.0
 11
-3.2166
 21
23.9794
 31
0.0
  0
LINE
  8
0
  5
3E
  6
CONTINUOUS
 62
4
 10
-1.7963
 20
25.9926
 30
0.0
 11
-1.8578
 21
25.9508
 31
0.0
  0
LINE
  8
0
  5
40
  6
CONTINUOUS
 62
4
 10
-2.7191
 20
25.9717
 30
0.0
 11
-2.7806
 21
25.9298
 31
0.0
  0
LINE
  8
0
  5
42
  6
CONTINUOUS
 62
4
 10
-4.0202
 20
23.9397
 30
0.0
 11
-3.9584
 21
23.9794
 31
0.0
  0
LINE
  8
0
  5
44
  6
CONTINUOUS
 62
4
 10
-3.0929
 20
23.9596
 30
0.0
 11
-3.0311
 21
23.9993
 31
0.0
  0
LINE
  8
0
  5
46
  6
CONTINUOUS
 62
4
 10
-3.6287
 20
23.364
 30
0.0
 11
-3.6905
 21
23.3243
 31
0.0
  0
LINE
  8
0
  5
48
  6
CONTINUOUS
 62
4
 10
-2.2274
 20
23.9596
 30
0.0
 11
-2.1656
 21
23.9993
 31
0.0
  0
LINE
  8
0
  5
4A
  6
CONTINUOUS
 62
4
 10
-2.7632
 20
23.3442
 30
0.0
 11
-2.825
 21
23.3045
 31
0.0
  0
LINE
  8
0
  5
4C
  6
CONTINUOUS
 62
4
 10
-2.7601
 20
25.8251
 30
0.0
 11
-2.6576
 21
25.8879
 31
0.0
  0
LINE
  8
0
  5
4E
  6
CONTINUOUS
 62
4
 10
-3.0517
 20
24.0985
 30
0.0
 11
-3.1547
 21
24.039
 31
0.0
  0
LINE
  8
0
  5
50
  6
CONTINUOUS
 62
4
 10
-2.8044
 20
23.2052
 30
0.0
 11
-2.7014
 21
23.2648
 31
0.0
  0
LINE
  8
0
  5
52
  6
CONTINUOUS
 62
4
 10
-1.8373
 20
25.8251
 30
0.0
 11
-1.7553
 21
25.867
 31
0.0
  0
LINE
  8
0
  5
54
  6
CONTINUOUS
 62
4
 10
-3.979
 20
24.0985
 30
0.0
 11
-4.0614
 21
24.0588
 31
0.0
  0
LINE
  8
0
  5
56
  6
CONTINUOUS
 62
4
 10
-2.1862
 20
24.0985
 30
0.0
 11
-2.2686
 21
24.0588
 31
0.0
  0
LINE
  8
0
  5
58
  6
CONTINUOUS
 62
4
 10
-3.6699
 20
23.2052
 30
0.0
 11
-3.5875
 21
23.2449
 31
0.0
  0
LINE
  8
0
  5
5A
  6
CONTINUOUS
 62
4
 10
-1.8578
 20
25.9508
 30
0.0
 11
-1.9194
 21
25.9298
 31
0.0
  0
LINE
  8
0
  5
5C
  6
CONTINUOUS
 62
4
 10
-3.9584
 20
23.9794
 30
0.0
 11
-3.8966
 21
23.9993
 31
0.0
  0
LINE
  8
0
  5
5E
  6
CONTINUOUS
 62
4
 10
14.6654
 20
-20.1462
 30
0.0
 11
21.5552
 21
-20.1462
 31
0.0
  0
LINE
  8
0
  5
60
  6
CONTINUOUS
 62
4
 10
-5.4132
 20
-18.9966
 30
0.0
 11
-4.675
 21
-18.9966
 31
0.0
  0
LINE
  8
0
  5
62
  6
CONTINUOUS
 62
4
 10
-4.1829
 20
-18.9966
 30
0.0
 11
-4.0189
 21
-18.9966
 31
0.0
  0
LINE
  8
0
  5
64
  6
CONTINUOUS
 62
4
 10
-3.1987
 20
-18.9966
 30
0.0
 11
-3.0961
 21
-18.9966
 31
0.0
  0
LINE
  8
0
  5
66
  6
CONTINUOUS
 62
4
 10
-4.675
 20
-18.8919
 30
0.0
 11
-5.2902
 21
-18.8919
 31
0.0
  0
LINE
  8
0
  5
68
  6
CONTINUOUS
 62
4
 10
-3.0961
 20
-18.871
 30
0.0
 11
-3.2192
 21
-18.871
 31
0.0
  0
LINE
  8
0
  5
6A
  6
CONTINUOUS
 62
4
 10
-4.0189
 20
-18.871
 30
0.0
 11
-4.1829
 21
-18.871
 31
0.0
  0
LINE
  8
0
  5
6C
  6
CONTINUOUS
 62
4
 10
-3.3422
 20
-18.7663
 30
0.0
 11
-3.4652
 21
-18.7663
 31
0.0
  0
LINE
  8
0
  5
6E
  6
CONTINUOUS
 62
4
 10
-3.2192
 20
-18.5778
 30
0.0
 11
-3.0961
 21
-18.5778
 31
0.0
  0
LINE
  8
0
  5
70
  6
CONTINUOUS
 62
4
 10
-3.3217
 20
-18.5568
 30
0.0
 11
-3.2192
 21
-18.5778
 31
0.0
  0
LINE
  8
0
  5
72
  6
CONTINUOUS
 62
4
 10
-3.9163
 20
-18.0333
 30
0.0
 11
-4.0189
 21
-18.0124
 31
0.0
  0
LINE
  8
0
  5
74
  6
CONTINUOUS
 62
4
 10
-2.9526
 20
-18.0333
 30
0.0
 11
-3.0551
 21
-18.0124
 31
0.0
  0
LINE
  8
0
  5
76
  6
CONTINUOUS
 62
4
 10
-3.2192
 20
-18.4521
 30
0.0
 11
-3.3012
 21
-18.4312
 31
0.0
  0
LINE
  8
0
  5
78
  6
CONTINUOUS
 62
4
 10
-3.0551
 20
-18.138
 30
0.0
 11
-2.9731
 21
-18.159
 31
0.0
  0
LINE
  8
0
  5
7A
  6
CONTINUOUS
 62
4
 10
-3.0141
 20
-18.4731
 30
0.0
 11
-3.0961
 21
-18.4521
 31
0.0
  0
LINE
  8
0
  5
7C
  6
CONTINUOUS
 62
4
 10
-4.0189
 20
-18.138
 30
0.0
 11
-3.9369
 21
-18.159
 31
0.0
  0
LINE
  8
0
  5
7E
  6
CONTINUOUS
 62
4
 10
-4.4348
 20
-17.8092
 30
0.0
 11
-6.1759
 21
-17.2384
 31
0.0
  0
LINE
  8
0
  5
80
  6
CONTINUOUS
 62
4
 10
-2.8501
 20
-18.0961
 30
0.0
 11
-2.9526
 21
-18.0333
 31
0.0
  0
LINE
  8
0
  5
82
  6
CONTINUOUS
 62
4
 10
-3.2807
 20
-18.85
 30
0.0
 11
-3.3217
 21
-18.8081
 31
0.0
  0
LINE
  8
0
  5
84
  6
CONTINUOUS
 62
4
 10
-3.4857
 20
-18.4312
 30
0.0
 11
-3.4037
 21
-18.515
 31
0.0
  0
LINE
  8
0
  5
86
  6
CONTINUOUS
 62
4
 10
-3.7523
 20
-18.159
 30
0.0
 11
-3.8343
 21
-18.0752
 31
0.0
  0
LINE
  8
0
  5
88
  6
CONTINUOUS
 62
4
 10
-2.8501
 20
-18.5987
 30
0.0
 11
-2.9321
 21
-18.515
 31
0.0
  0
LINE
  8
0
  5
8A
  6
CONTINUOUS
 62
4
 10
-2.9731
 20
-18.159
 30
0.0
 11
-2.9116
 21
-18.2218
 31
0.0
  0
LINE
  8
0
  5
8C
  6
CONTINUOUS
 62
4
 10
-3.4447
 20
-18.8291
 30
0.0
 11
-3.3832
 21
-18.9128
 31
0.0
  0
LINE
  8
0
  5
8E
  6
CONTINUOUS
 62
4
 10
-4.3265
 20
-18.8081
 30
0.0
 11
-4.3675
 21
-18.7453
 31
0.0
  0
LINE
  8
0
  5
90
  6
CONTINUOUS
 62
4
 10
-3.1702
 20
26.6418
 30
0.0
 11
-3.2112
 21
26.5581
 31
0.0
  0
LINE
  8
0
  5
92
  6
CONTINUOUS
 62
4
 10
-3.1292
 20
26.4952
 30
0.0
 11
-3.0472
 21
26.6209
 31
0.0
  0
LINE
  8
0
  5
94
  6
CONTINUOUS
 62
4
 10
-2.6371
 20
26.0974
 30
0.0
 11
-2.7191
 21
25.9717
 31
0.0
  0
LINE
  8
0
  5
96
  6
CONTINUOUS
 62
4
 10
-2.2269
 20
26.5371
 30
0.0
 11
-2.1859
 21
26.6
 31
0.0
  0
LINE
  8
0
  5
98
  6
CONTINUOUS
 62
4
 10
-3.5875
 20
23.4236
 30
0.0
 11
-3.6287
 21
23.364
 31
0.0
  0
LINE
  8
0
  5
9A
  6
CONTINUOUS
 62
4
 10
-3.1753
 20
23.8405
 30
0.0
 11
-3.0929
 21
23.9596
 31
0.0
  0
LINE
  8
0
  5
9C
  6
CONTINUOUS
 62
4
 10
-2.6808
 20
23.4633
 30
0.0
 11
-2.7632
 21
23.3442
 31
0.0
  0
LINE
  8
0
  5
9E
  6
CONTINUOUS
 62
4
 10
-2.2686
 20
23.9
 30
0.0
 11
-2.2274
 21
23.9596
 31
0.0
  0
LINE
  8
0
  5
A0
  6
CONTINUOUS
 62
4
 10
-3.5875
 20
23.2449
 30
0.0
 11
-3.5051
 21
23.3243
 31
0.0
  0
LINE
  8
0
  5
A2
  6
CONTINUOUS
 62
4
 10
-2.2686
 20
24.0588
 30
0.0
 11
-2.3511
 21
23.9794
 31
0.0
  0
LINE
  8
0
  5
A4
  6
CONTINUOUS
 62
4
 10
-2.7014
 20
23.2648
 30
0.0
 11
-2.6396
 21
23.3243
 31
0.0
  0
LINE
  8
0
  5
A6
  6
CONTINUOUS
 62
4
 10
-1.8153
 20
23.7809
 30
0.0
 11
-2.3923
 21
23.2846
 31
0.0
  0
LINE
  8
0
  5
A8
  6
CONTINUOUS
 62
4
 10
-2.2274
 20
23.2846
 30
0.0
 11
-1.7122
 21
23.7213
 31
0.0
  0
LINE
  8
0
  5
AA
  6
CONTINUOUS
 62
4
 10
-3.0961
 20
-18.4521
 30
0.0
 11
-3.2192
 21
-18.4521
 31
0.0
  0
LINE
  8
0
  5
AC
  6
CONTINUOUS
 62
4
 10
-2.8911
 20
-18.2846
 30
0.0
 11
-2.7681
 21
-18.2846
 31
0.0
  0
LINE
  8
0
  5
AE
  6
CONTINUOUS
 62
4
 10
14.6654
 20
-18.1777
 30
0.0
 11
21.5552
 21
-18.1777
 31
0.0
  0
LINE
  8
0
  5
B0
  6
CONTINUOUS
 62
4
 10
-4.1829
 20
-18.138
 30
0.0
 11
-4.0189
 21
-18.138
 31
0.0
  0
LINE
  8
0
  5
B2
  6
CONTINUOUS
 62
4
 10
-3.2192
 20
-18.138
 30
0.0
 11
-3.0551
 21
-18.138
 31
0.0
  0
LINE
  8
0
  5
B4
  6
CONTINUOUS
 62
4
 10
-3.0551
 20
-18.0124
 30
0.0
 11
-3.2192
 21
-18.0124
 31
0.0
  0
LINE
  8
0
  5
B6
  6
CONTINUOUS
 62
4
 10
-4.0189
 20
-18.0124
 30
0.0
 11
-4.1829
 21
-18.0124
 31
0.0
  0
LINE
  8
0
  5
B8
  6
CONTINUOUS
 62
4
 10
-4.8801
 20
-18.0124
 30
0.0
 11
-5.0031
 21
-18.0124
 31
0.0
  0
LINE
  8
0
  5
BA
  6
CONTINUOUS
 62
4
 10
-14.8936
 20
-16.9966
 30
0.0
 11
-12.614
 21
-16.9966
 31
0.0
  0
LINE
  8
0
  5
BC
  6
CONTINUOUS
 62
4
 10
18.5709
 20
-16.9966
 30
0.0
 11
20.5394
 21
-16.9966
 31
0.0
  0
LINE
  8
0
  5
BE
  6
CONTINUOUS
 62
4
 10
-14.7685
 20
-16.7708
 30
0.0
 11
-12.4705
 21
-16.7708
 31
0.0
  0
LINE
  8
0
  5
C0
  6
CONTINUOUS
 62
4
 10
18.568
 20
-16.7708
 30
0.0
 11
20.537
 21
-16.7708
 31
0.0
  0
LINE
  8
0
  5
C2
  6
CONTINUOUS
 62
4
 10
-10.2182
 20
-7.4244
 30
0.0
 11
-10.1567
 21
-7.4873
 31
0.0
  0
LINE
  8
0
  5
C4
  6
CONTINUOUS
 62
4
 10
-9.1519
 20
-7.4244
 30
0.0
 11
-9.193
 21
-7.3825
 31
0.0
  0
LINE
  8
0
  5
C6
  6
CONTINUOUS
 62
4
 10
-9.6441
 20
-6.7334
 30
0.0
 11
-9.7056
 21
-6.6705
 31
0.0
  0
LINE
  8
0
  5
C8
  6
CONTINUOUS
 62
4
 10
-9.357
 20
-7.0056
 30
0.0
 11
-9.275
 21
-7.0894
 31
0.0
  0
LINE
  8
0
  5
CA
  6
CONTINUOUS
 62
4
 10
-2.056
 20
-15.3014
 30
0.0
 11
-3.6284
 21
-13.5589
 31
0.0
  0
LINE
  8
0
  5
CC
  6
CONTINUOUS
 62
4
 10
-9.316
 20
-7.4035
 30
0.0
 11
-9.2545
 21
-7.4873
 31
0.0
  0
LINE
  8
0
  5
CE
  6
CONTINUOUS
 62
4
 10
-3.8753
 20
-18.2008
 30
0.0
 11
-3.8343
 21
-18.2637
 31
0.0
  0
LINE
  8
0
  5
D0
  6
CONTINUOUS
 62
4
 10
-3.3627
 20
-18.3893
 30
0.0
 11
-3.4037
 21
-18.3265
 31
0.0
  0
LINE
  8
0
  5
D2
  6
CONTINUOUS
 62
4
 10
-10.0952
 20
-7.4035
 30
0.0
 11
-10.1772
 21
-7.2778
 31
0.0
  0
LINE
  8
0
  5
D4
  6
CONTINUOUS
 62
4
 10
-9.7671
 20
-6.7543
 30
0.0
 11
-9.6851
 21
-6.88
 31
0.0
  0
LINE
  8
0
  5
D6
  6
CONTINUOUS
 62
4
 10
-9.234
 20
-6.9637
 30
0.0
 11
-9.275
 21
-6.9009
 31
0.0
  0
LINE
  8
0
  5
D8
  6
CONTINUOUS
 62
4
 10
-2.7886
 20
-18.2008
 30
0.0
 11
-2.8501
 21
-18.0961
 31
0.0
  0
LINE
  8
0
  5
DA
  6
CONTINUOUS
 62
4
 10
-10.2592
 20
-7.3407
 30
0.0
 11
-10.2182
 21
-7.4244
 31
0.0
  0
LINE
  8
0
  5
DC
  6
CONTINUOUS
 62
4
 10
-4.4905
 20
-18.7663
 30
0.0
 11
-4.4495
 21
-18.85
 31
0.0
  0
LINE
  8
0
  5
DE
  6
CONTINUOUS
 62
4
 10
-9.6031
 20
-6.8171
 30
0.0
 11
-9.6441
 21
-6.7334
 31
0.0
  0
LINE
  8
0
  5
E0
  6
CONTINUOUS
 62
4
 10
-9.193
 20
-7.3825
 30
0.0
 11
-9.2135
 21
-7.3407
 31
0.0
  0
LINE
  8
0
  5
E2
  6
CONTINUOUS
 62
4
 10
-9.398
 20
-6.9218
 30
0.0
 11
-9.357
 21
-7.0056
 31
0.0
  0
LINE
  8
0
  5
E4
  6
CONTINUOUS
 62
4
 10
-3.7113
 20
-18.2427
 30
0.0
 11
-3.7523
 21
-18.159
 31
0.0
  0
LINE
  8
0
  5
E6
  6
CONTINUOUS
 62
4
 10
-3.3217
 20
-18.8081
 30
0.0
 11
-3.3422
 21
-18.7663
 31
0.0
  0
LINE
  8
0
  5
E8
  6
CONTINUOUS
 62
4
 10
-3.5267
 20
-18.3474
 30
0.0
 11
-3.4857
 21
-18.4312
 31
0.0
  0
LINE
  8
0
  5
EA
  6
CONTINUOUS
 62
4
 10
-10.2797
 20
-7.2778
 30
0.0
 11
-10.2592
 21
-7.3407
 31
0.0
  0
LINE
  8
0
  5
EC
  6
CONTINUOUS
 62
4
 10
-9.5826
 20
-6.88
 30
0.0
 11
-9.6031
 21
-6.8171
 31
0.0
  0
LINE
  8
0
  5
EE
  6
CONTINUOUS
 62
4
 10
-9.3365
 20
-7.3407
 30
0.0
 11
-9.316
 21
-7.4035
 31
0.0
  0
LINE
  8
0
  5
F0
  6
CONTINUOUS
 62
4
 10
-10.3002
 20
-7.1731
 30
0.0
 11
-10.2797
 21
-7.2778
 31
0.0
  0
LINE
  8
0
  5
F2
  6
CONTINUOUS
 62
4
 10
-10.1772
 20
-7.2778
 30
0.0
 11
-10.1977
 21
-7.1522
 31
0.0
  0
LINE
  8
0
  5
F4
  6
CONTINUOUS
 62
4
 10
-11.2204
 20
19.5861
 30
0.0
 11
-11.2204
 21
18.3531
 31
0.0
  0
LINE
  8
0
  5
F6
  6
CONTINUOUS
 62
4
 10
-10.7103
 20
-6.5868
 30
0.0
 11
-10.7103
 21
-7.571
 31
0.0
  0
LINE
  8
0
  5
F8
  6
CONTINUOUS
 62
4
 10
-10.5873
 20
-7.4035
 30
0.0
 11
-10.5873
 21
-6.5868
 31
0.0
  0
LINE
  8
0
  5
FA
  6
CONTINUOUS
 62
4
 10
-10.4643
 20
-7.4244
 30
0.0
 11
-10.4643
 21
-7.2569
 31
0.0
  0
LINE
  8
0
  5
FC
  6
CONTINUOUS
 62
4
 10
-10.3002
 20
-6.9847
 30
0.0
 11
-10.3002
 21
-7.1731
 31
0.0
  0
LINE
  8
0
  5
FE
  6
CONTINUOUS
 62
4
 10
-10.1977
 20
-7.1522
 30
0.0
 11
-10.1977
 21
-7.0056
 31
0.0
  0
LINE
  8
0
  5
100
  6
CONTINUOUS
 62
4
 10
-9.6646
 20
-7.0056
 30
0.0
 11
-9.6646
 21
-7.1522
 31
0.0
  0
LINE
  8
0
  5
102
  6
CONTINUOUS
 62
4
 10
-9.562
 20
-7.1731
 30
0.0
 11
-9.562
 21
-6.9847
 31
0.0
  0
LINE
  8
0
  5
104
  6
CONTINUOUS
 62
4
 10
-3.2112
 20
26.5581
 30
0.0
 11
-3.2317
 21
26.4952
 31
0.0
  0
LINE
  8
0
  5
106
  6
CONTINUOUS
 62
4
 10
-4.0408
 20
23.8802
 30
0.0
 11
-4.0202
 21
23.9397
 31
0.0
  0
LINE
  8
0
  5
108
  6
CONTINUOUS
 62
4
 10
-2.309
 20
26.6418
 30
0.0
 11
-2.35
 21
26.5581
 31
0.0
  0
LINE
  8
0
  5
10A
  6
CONTINUOUS
 62
4
 10
-2.596
 20
25.9508
 30
0.0
 11
-2.555
 21
26.0345
 31
0.0
  0
LINE
  8
0
  5
10C
  6
CONTINUOUS
 62
4
 10
-3.2166
 20
23.9794
 30
0.0
 11
-3.2578
 21
23.9
 31
0.0
  0
LINE
  8
0
  5
10E
  6
CONTINUOUS
 62
4
 10
-3.5051
 20
23.3243
 30
0.0
 11
-3.4638
 21
23.4037
 31
0.0
  0
LINE
  8
0
  5
110
  6
CONTINUOUS
 62
4
 10
-2.6396
 20
23.3243
 30
0.0
 11
-2.5983
 21
23.4037
 31
0.0
  0
LINE
  8
0
  5
112
  6
CONTINUOUS
 62
4
 10
-1.7741
 20
23.8603
 30
0.0
 11
-1.8153
 21
23.7809
 31
0.0
  0
LINE
  8
0
  5
114
  6
CONTINUOUS
 62
4
 10
-1.7122
 20
23.7213
 30
0.0
 11
-1.671
 21
23.7809
 31
0.0
  0
LINE
  8
0
  5
116
  6
CONTINUOUS
 62
4
 10
19.0556
 20
26.6128
 30
0.0
 11
19.1182
 21
26.6323
 31
0.0
  0
LINE
  8
0
  5
118
  6
CONTINUOUS
 62
4
 10
19.8006
 20
27.6209
 30
0.0
 11
8.8732
 21
24.2921
 31
0.0
  0
LINE
  8
0
  5
11A
  6
CONTINUOUS
 62
4
 10
-3.0961
 20
-18.9966
 30
0.0
 11
-3.0141
 21
-18.9757
 31
0.0
  0
LINE
  8
0
  5
11C
  6
CONTINUOUS
 62
4
 10
-3.9369
 20
-18.85
 30
0.0
 11
-4.0189
 21
-18.871
 31
0.0
  0
LINE
  8
0
  5
11E
  6
CONTINUOUS
 62
4
 10
-3.3012
 20
-18.159
 30
0.0
 11
-3.2192
 21
-18.138
 31
0.0
  0
LINE
  8
0
  5
120
  6
CONTINUOUS
 62
4
 10
-4.2649
 20
-18.159
 30
0.0
 11
-4.1829
 21
-18.138
 31
0.0
  0
LINE
  8
0
  5
122
  6
CONTINUOUS
 62
4
 10
-4.0189
 20
-18.9966
 30
0.0
 11
-3.9163
 21
-18.9757
 31
0.0
  0
LINE
  8
0
  5
124
  6
CONTINUOUS
 62
4
 10
-3.2192
 20
-18.0124
 30
0.0
 11
-3.3217
 21
-18.0333
 31
0.0
  0
LINE
  8
0
  5
126
  6
CONTINUOUS
 62
4
 10
-4.1829
 20
-18.0124
 30
0.0
 11
-4.2854
 21
-18.0333
 31
0.0
  0
LINE
  8
0
  5
128
  6
CONTINUOUS
 62
4
 10
-10.1567
 20
-7.4873
 30
0.0
 11
-10.0542
 21
-7.5501
 31
0.0
  0
LINE
  8
0
  5
12A
  6
CONTINUOUS
 62
4
 10
-9.7056
 20
-6.6705
 30
0.0
 11
-9.8081
 21
-6.6077
 31
0.0
  0
LINE
  8
0
  5
12C
  6
CONTINUOUS
 62
4
 10
-8.7213
 20
-6.6705
 30
0.0
 11
-8.8239
 21
-6.6077
 31
0.0
  0
LINE
  8
0
  5
12E
  6
CONTINUOUS
 62
4
 10
-10.0337
 20
-7.4454
 30
0.0
 11
-10.0952
 21
-7.4035
 31
0.0
  0
LINE
  8
0
  5
130
  6
CONTINUOUS
 62
4
 10
-9.8286
 20
-6.7124
 30
0.0
 11
-9.7671
 21
-6.7543
 31
0.0
  0
LINE
  8
0
  5
132
  6
CONTINUOUS
 62
4
 10
-9.1724
 20
-7.0056
 30
0.0
 11
-9.234
 21
-6.9637
 31
0.0
  0
LINE
  8
0
  5
134
  6
CONTINUOUS
 62
4
 10
-8.9059
 20
-7.1731
 30
0.0
 11
-8.8444
 21
-7.215
 31
0.0
  0
LINE
  8
0
  5
136
  6
CONTINUOUS
 62
4
 10
-9.2545
 20
-7.4873
 30
0.0
 11
-9.1724
 21
-7.5501
 31
0.0
  0
LINE
  8
0
  5
138
  6
CONTINUOUS
 62
4
 10
-8.7213
 20
-7.1731
 30
0.0
 11
-8.8034
 21
-7.0894
 31
0.0
  0
LINE
  8
0
  5
13A
  6
CONTINUOUS
 62
4
 10
-8.8444
 20
-6.7334
 30
0.0
 11
-8.7829
 21
-6.7962
 31
0.0
  0
LINE
  8
0
  5
13C
  6
CONTINUOUS
 62
4
 10
-8.6598
 20
-6.7752
 30
0.0
 11
-8.7213
 21
-6.6705
 31
0.0
  0
LINE
  8
0
  5
13E
  6
CONTINUOUS
 62
4
 10
-8.8444
 20
-7.215
 30
0.0
 11
-8.8239
 21
-7.2778
 31
0.0
  0
LINE
  8
0
  5
140
  6
CONTINUOUS
 62
4
 10
-8.7829
 20
-6.7962
 30
0.0
 11
-8.7623
 21
-6.859
 31
0.0
  0
LINE
  8
0
  5
142
  6
CONTINUOUS
 62
4
 10
-3.4652
 20
-18.7663
 30
0.0
 11
-3.4447
 21
-18.8291
 31
0.0
  0
LINE
  8
0
  5
144
  6
CONTINUOUS
 62
4
 10
-8.7008
 20
-7.2569
 30
0.0
 11
-8.7213
 21
-7.1731
 31
0.0
  0
LINE
  8
0
  5
146
  6
CONTINUOUS
 62
4
 10
-8.6393
 20
-6.859
 30
0.0
 11
-8.6598
 21
-6.7752
 31
0.0
  0
LINE
  8
0
  5
148
  6
CONTINUOUS
 62
4
 10
-9.562
 20
-6.9847
 30
0.0
 11
-9.5826
 21
-6.88
 31
0.0
  0
LINE
  8
0
  5
14A
  6
CONTINUOUS
 62
4
 10
-9.6851
 20
-6.88
 30
0.0
 11
-9.6646
 21
-7.0056
 31
0.0
  0
LINE
  8
0
  5
14C
  6
CONTINUOUS
 62
4
 10
-9.398
 20
-6.8171
 30
0.0
 11
-9.398
 21
-6.9218
 31
0.0
  0
LINE
  8
0
  5
14E
  6
CONTINUOUS
 62
4
 10
-9.275
 20
-6.9009
 30
0.0
 11
-9.275
 21
-6.8381
 31
0.0
  0
LINE
  8
0
  5
150
  6
CONTINUOUS
 62
4
 10
-8.8239
 20
-7.2778
 30
0.0
 11
-8.8239
 21
-7.3197
 31
0.0
  0
LINE
  8
0
  5
152
  6
CONTINUOUS
 62
4
 10
-8.7008
 20
-7.3407
 30
0.0
 11
-8.7008
 21
-7.2569
 31
0.0
  0
LINE
  8
0
  5
154
  6
CONTINUOUS
 62
4
 10
-10.1977
 20
-7.0056
 30
0.0
 11
-10.1772
 21
-6.88
 31
0.0
  0
LINE
  8
0
  5
156
  6
CONTINUOUS
 62
4
 10
-9.6646
 20
-7.1522
 30
0.0
 11
-9.6851
 21
-7.2778
 31
0.0
  0
LINE
  8
0
  5
158
  6
CONTINUOUS
 62
4
 10
-10.2797
 20
-6.88
 30
0.0
 11
-10.3002
 21
-6.9847
 31
0.0
  0
LINE
  8
0
  5
15A
  6
CONTINUOUS
 62
4
 10
-3.2317
 20
26.4952
 30
0.0
 11
-3.2522
 21
26.3905
 31
0.0
  0
LINE
  8
0
  5
15C
  6
CONTINUOUS
 62
4
 10
-4.1439
 20
23.9794
 30
0.0
 11
-4.1645
 21
23.9
 31
0.0
  0
LINE
  8
0
  5
15E
  6
CONTINUOUS
 62
4
 10
-2.555
 20
26.0345
 30
0.0
 11
-2.5345
 21
26.0974
 31
0.0
  0
LINE
  8
0
  5
160
  6
CONTINUOUS
 62
4
 10
-1.7758
 20
26.0555
 30
0.0
 11
-1.7963
 21
25.9926
 31
0.0
  0
LINE
  8
0
  5
162
  6
CONTINUOUS
 62
4
 10
-3.2578
 20
23.9
 30
0.0
 11
-3.2784
 21
23.8405
 31
0.0
  0
LINE
  8
0
  5
164
  6
CONTINUOUS
 62
4
 10
-2.5983
 20
23.4037
 30
0.0
 11
-2.5777
 21
23.4633
 31
0.0
  0
LINE
  8
0
  5
166
  6
CONTINUOUS
 62
4
 10
-12.7957
 20
-4.8918
 30
0.0
 11
-12.4458
 21
-4.0737
 31
0.0
  0
LINE
  8
0
  5
168
  6
CONTINUOUS
 62
4
 10
19.0348
 20
26.7298
 30
0.0
 11
18.9514
 21
26.6908
 31
0.0
  0
LINE
  8
0
  5
16A
  6
CONTINUOUS
 62
4
 10
2.3834
 20
18.8951
 30
0.0
 11
-2.4069
 21
16.9347
 31
0.0
  0
LINE
  8
0
  5
16C
  6
CONTINUOUS
 62
4
 10
21.1825
 20
26.3788
 30
0.0
 11
21.0574
 21
26.3398
 31
0.0
  0
LINE
  8
0
  5
16E
  6
CONTINUOUS
 62
4
 10
11.8008
 20
23.1261
 30
0.0
 11
19.4888
 21
25.4681
 31
0.0
  0
LINE
  8
0
  5
170
  6
CONTINUOUS
 62
4
 10
5.5119
 20
19.5861
 30
0.0
 11
6.7157
 21
19.9469
 31
0.0
  0
LINE
  8
0
  5
172
  6
CONTINUOUS
 62
4
 10
-10.12
 20
-8.0531
 30
0.0
 11
-14.8592
 21
-6.5824
 31
0.0
  0
LINE
  8
0
  5
174
  6
CONTINUOUS
 62
4
 10
-9.0904
 20
-7.4454
 30
0.0
 11
-9.1519
 21
-7.4244
 31
0.0
  0
LINE
  8
0
  5
176
  6
CONTINUOUS
 62
4
 10
-8.9674
 20
-7.1522
 30
0.0
 11
-8.9059
 21
-7.1731
 31
0.0
  0
LINE
  8
0
  5
178
  6
CONTINUOUS
 62
4
 10
-9.275
 20
-7.0894
 30
0.0
 11
-9.193
 21
-7.1313
 31
0.0
  0
LINE
  8
0
  5
17A
  6
CONTINUOUS
 62
4
 10
-8.8034
 20
-7.0894
 30
0.0
 11
-8.8854
 21
-7.0475
 31
0.0
  0
LINE
  8
0
  5
17C
  6
CONTINUOUS
 62
4
 10
-9.3375
 20
-1.7617
 30
0.0
 11
-7.3151
 21
-3.6815
 31
0.0
  0
LINE
  8
0
  5
17E
  6
CONTINUOUS
 62
4
 10
-7.0423
 20
-4.0737
 30
0.0
 11
-6.6924
 21
-4.8918
 31
0.0
  0
LINE
  8
0
  5
180
  6
CONTINUOUS
 62
4
 10
-2.9731
 20
-18.6406
 30
0.0
 11
-2.9526
 21
-18.7034
 31
0.0
  0
LINE
  8
0
  5
182
  6
CONTINUOUS
 62
4
 10
-2.9116
 20
-18.2218
 30
0.0
 11
-2.8911
 21
-18.2846
 31
0.0
  0
LINE
  8
0
  5
184
  6
CONTINUOUS
 62
4
 10
-4.3675
 20
-18.7453
 30
0.0
 11
-4.388
 21
-18.6615
 31
0.0
  0
LINE
  8
0
  5
186
  6
CONTINUOUS
 62
4
 10
-3.8343
 20
-18.2637
 30
0.0
 11
-3.8138
 21
-18.3474
 31
0.0
  0
LINE
  8
0
  5
188
  6
CONTINUOUS
 62
4
 10
-2.8296
 20
-18.6825
 30
0.0
 11
-2.8501
 21
-18.5987
 31
0.0
  0
LINE
  8
0
  5
18A
  6
CONTINUOUS
 62
4
 10
-2.7681
 20
-18.2846
 30
0.0
 11
-2.7886
 21
-18.2008
 31
0.0
  0
LINE
  8
0
  5
18C
  6
CONTINUOUS
 62
4
 10
-4.511
 20
-18.6615
 30
0.0
 11
-4.4905
 21
-18.7663
 31
0.0
  0
LINE
  8
0
  5
18E
  6
CONTINUOUS
 62
4
 10
-3.6908
 20
-18.3474
 30
0.0
 11
-3.7113
 21
-18.2427
 31
0.0
  0
LINE
  8
0
  5
190
  6
CONTINUOUS
 62
4
 10
-5.4132
 20
-18.8919
 30
0.0
 11
-5.4132
 21
-18.9966
 31
0.0
  0
LINE
  8
0
  5
192
  6
CONTINUOUS
 62
4
 10
-3.1497
 20
26.3696
 30
0.0
 11
-3.1292
 21
26.4952
 31
0.0
  0
LINE
  8
0
  5
194
  6
CONTINUOUS
 62
4
 10
-2.6165
 20
26.223
 30
0.0
 11
-2.6371
 21
26.0974
 31
0.0
  0
LINE
  8
0
  5
196
  6
CONTINUOUS
 62
4
 10
-3.1959
 20
23.7213
 30
0.0
 11
-3.1753
 21
23.8405
 31
0.0
  0
LINE
  8
0
  5
198
  6
CONTINUOUS
 62
4
 10
-2.6602
 20
23.5824
 30
0.0
 11
-2.6808
 21
23.4633
 31
0.0
  0
LINE
  8
0
  5
19A
  6
CONTINUOUS
 62
4
 10
-9.5826
 20
-7.2778
 30
0.0
 11
-9.562
 21
-7.1731
 31
0.0
  0
LINE
  8
0
  5
19C
  6
CONTINUOUS
 62
4
 10
-2.5345
 20
26.0974
 30
0.0
 11
-2.514
 21
26.2021
 31
0.0
  0
LINE
  8
0
  5
19E
  6
CONTINUOUS
 62
4
 10
-3.2784
 20
23.8405
 30
0.0
 11
-3.299
 21
23.7412
 31
0.0
  0
LINE
  8
0
  5
1A0
  6
CONTINUOUS
 62
4
 10
-2.5777
 20
23.4633
 30
0.0
 11
-2.5571
 21
23.5625
 31
0.0
  0
LINE
  8
0
  5
1A2
  6
CONTINUOUS
 62
4
 10
-1.6733
 20
25.9508
 30
0.0
 11
-1.6528
 21
26.0345
 31
0.0
  0
LINE
  8
0
  5
1A4
  6
CONTINUOUS
 62
4
 10
-8.7213
 20
-7.4244
 30
0.0
 11
-8.7008
 21
-7.3407
 31
0.0
  0
LINE
  8
0
  5
1A6
  6
CONTINUOUS
 62
4
 10
-2.3511
 20
23.9794
 30
0.0
 11
-2.3717
 21
23.9
 31
0.0
  0
LINE
  8
0
  5
1A8
  6
CONTINUOUS
 62
4
 10
-1.671
 20
23.7809
 30
0.0
 11
-1.6504
 21
23.8603
 31
0.0
  0
LINE
  8
0
  5
1AA
  6
CONTINUOUS
 62
4
 10
-10.2592
 20
-6.8171
 30
0.0
 11
-10.2797
 21
-6.88
 31
0.0
  0
LINE
  8
0
  5
1AC
  6
CONTINUOUS
 62
4
 10
-9.6031
 20
-7.3407
 30
0.0
 11
-9.5826
 21
-7.2778
 31
0.0
  0
LINE
  8
0
  5
1AE
  6
CONTINUOUS
 62
4
 10
-0.0446
 20
14.6587
 30
0.0
 11
-0.1266
 21
14.5749
 31
0.0
  0
LINE
  8
0
  5
1B0
  6
CONTINUOUS
 62
4
 10
-0.0036
 20
14.533
 30
0.0
 11
0.058
 21
14.5749
 31
0.0
  0
LINE
  8
0
  5
1B2
  6
CONTINUOUS
 62
4
 10
18.9931
 20
26.5738
 30
0.0
 11
19.0556
 21
26.6128
 31
0.0
  0
LINE
  8
0
  5
1B4
  6
CONTINUOUS
 62
4
 10
19.9731
 20
26.7298
 30
0.0
 11
19.8688
 21
26.6713
 31
0.0
  0
LINE
  8
0
  5
1B6
  6
CONTINUOUS
 62
4
 10
20.2233
 20
25.8522
 30
0.0
 11
20.3276
 21
25.9108
 31
0.0
  0
LINE
  8
0
  5
1B8
  6
CONTINUOUS
 62
4
 10
0.0375
 20
14.7006
 30
0.0
 11
-0.0446
 21
14.6587
 31
0.0
  0
LINE
  8
0
  5
1BA
  6
CONTINUOUS
 62
4
 10
20.8489
 20
26.7298
 30
0.0
 11
20.7655
 21
26.6908
 31
0.0
  0
LINE
  8
0
  5
1BC
  6
CONTINUOUS
 62
4
 10
19.3475
 20
25.8522
 30
0.0
 11
19.431
 21
25.8912
 31
0.0
  0
LINE
  8
0
  5
1BE
  6
CONTINUOUS
 62
4
 10
21.2242
 20
25.9693
 30
0.0
 11
21.1825
 21
25.9498
 31
0.0
  0
LINE
  8
0
  5
1C0
  6
CONTINUOUS
 62
4
 10
21.1825
 20
25.8522
 30
0.0
 11
21.2659
 21
25.8912
 31
0.0
  0
LINE
  8
0
  5
1C2
  6
CONTINUOUS
 62
4
 10
0.7061
 20
15.4162
 30
0.0
 11
-10.2357
 21
12.0829
 31
0.0
  0
LINE
  8
0
  5
1C4
  6
CONTINUOUS
 62
4
 10
5.5119
 20
18.3531
 30
0.0
 11
8.9692
 21
19.3892
 31
0.0
  0
LINE
  8
0
  5
1C6
  6
CONTINUOUS
 62
4
 10
-3.1229
 20
-9.7421
 30
0.0
 11
-0.8249
 21
-9.7421
 31
0.0
  0
LINE
  8
0
  5
1C8
  6
CONTINUOUS
 62
4
 10
30.2136
 20
-9.7421
 30
0.0
 11
32.1827
 21
-9.7421
 31
0.0
  0
LINE
  8
0
  5
1CA
  6
CONTINUOUS
 62
4
 10
-3.248
 20
-9.5163
 30
0.0
 11
-0.9684
 21
-9.5163
 31
0.0
  0
LINE
  8
0
  5
1CC
  6
CONTINUOUS
 62
4
 10
30.2166
 20
-9.5163
 30
0.0
 11
32.1851
 21
-9.5163
 31
0.0
  0
LINE
  8
0
  5
1CE
  6
CONTINUOUS
 62
4
 10
-10.0542
 20
-7.5501
 30
0.0
 11
-9.9311
 21
-7.571
 31
0.0
  0
LINE
  8
0
  5
1D0
  6
CONTINUOUS
 62
4
 10
-9.8081
 20
-6.6077
 30
0.0
 11
-9.9311
 21
-6.5868
 31
0.0
  0
LINE
  8
0
  5
1D2
  6
CONTINUOUS
 62
4
 10
-9.9311
 20
-7.4663
 30
0.0
 11
-10.0337
 21
-7.4454
 31
0.0
  0
LINE
  8
0
  5
1D4
  6
CONTINUOUS
 62
4
 10
-9.1724
 20
-7.5501
 30
0.0
 11
-9.0699
 21
-7.571
 31
0.0
  0
LINE
  8
0
  5
1D6
  6
CONTINUOUS
 62
4
 10
-9.193
 20
-7.1313
 30
0.0
 11
-9.0904
 21
-7.1522
 31
0.0
  0
LINE
  8
0
  5
1D8
  6
CONTINUOUS
 62
4
 10
-9.9311
 20
-6.6915
 30
0.0
 11
-9.8286
 21
-6.7124
 31
0.0
  0
LINE
  8
0
  5
1DA
  6
CONTINUOUS
 62
4
 10
-8.8239
 20
-6.6077
 30
0.0
 11
-8.9264
 21
-6.5868
 31
0.0
  0
LINE
  8
0
  5
1DC
  6
CONTINUOUS
 62
4
 10
-9.0904
 20
-7.0265
 30
0.0
 11
-9.1724
 21
-7.0056
 31
0.0
  0
LINE
  8
0
  5
1DE
  6
CONTINUOUS
 62
4
 10
-8.8854
 20
-7.0475
 30
0.0
 11
-8.9674
 21
-7.0265
 31
0.0
  0
LINE
  8
0
  5
1E0
  6
CONTINUOUS
 62
4
 10
-8.9264
 20
-6.7124
 30
0.0
 11
-8.8444
 21
-6.7334
 31
0.0
  0
LINE
  8
0
  5
1E2
  6
CONTINUOUS
 62
4
 10
-12.4278
 20
-5.6881
 30
0.0
 11
-10.0941
 21
-6.4123
 31
0.0
  0
LINE
  8
0
  5
1E4
  6
CONTINUOUS
 62
4
 10
-1.576
 20
-16.5081
 30
0.0
 11
-1.8013
 21
-15.7544
 31
0.0
  0
LINE
  8
0
  5
1E6
  6
CONTINUOUS
 62
4
 10
-4.675
 20
-18.9966
 30
0.0
 11
-4.675
 21
-18.8919
 31
0.0
  0
LINE
  8
0
  5
1E8
  6
CONTINUOUS
 62
4
 10
-4.511
 20
-18.3474
 30
0.0
 11
-4.511
 21
-18.6615
 31
0.0
  0
LINE
  8
0
  5
1EA
  6
CONTINUOUS
 62
4
 10
-4.388
 20
-18.6615
 30
0.0
 11
-4.388
 21
-18.3474
 31
0.0
  0
LINE
  8
0
  5
1EC
  6
CONTINUOUS
 62
4
 10
-4.2365
 20
26.4952
 30
0.0
 11
-4.2365
 21
26.3696
 31
0.0
  0
LINE
  8
0
  5
1EE
  6
CONTINUOUS
 62
4
 10
-4.1645
 20
23.9
 30
0.0
 11
-4.1645
 21
23.8206
 31
0.0
  0
LINE
  8
0
  5
1F0
  6
CONTINUOUS
 62
4
 10
-4.0408
 20
23.8405
 30
0.0
 11
-4.0408
 21
23.8802
 31
0.0
  0
LINE
  8
0
  5
1F2
  6
CONTINUOUS
 62
4
 10
-4.0314
 20
26.7884
 30
0.0
 11
-4.0314
 21
26.4952
 31
0.0
  0
LINE
  8
0
  5
1F4
  6
CONTINUOUS
 62
4
 10
-4.0314
 20
26.3696
 30
0.0
 11
-4.0314
 21
25.8042
 31
0.0
  0
LINE
  8
0
  5
1F6
  6
CONTINUOUS
 62
4
 10
-4.0232
 20
3.0815
 30
0.0
 11
-4.0232
 21
1.901
 31
0.0
  0
LINE
  8
0
  5
1F8
  6
CONTINUOUS
 62
4
 10
-4.0232
 20
-4.0045
 30
0.0
 11
-4.0232
 21
-5.5793
 31
0.0
  0
LINE
  8
0
  5
1FA
  6
CONTINUOUS
 62
4
 10
-3.9084
 20
25.9717
 30
0.0
 11
-3.9084
 21
26.3696
 31
0.0
  0
LINE
  8
0
  5
1FC
  6
CONTINUOUS
 62
4
 10
-3.9084
 20
26.4952
 30
0.0
 11
-3.9084
 21
26.7884
 31
0.0
  0
LINE
  8
0
  5
1FE
  6
CONTINUOUS
 62
4
 10
-3.8138
 20
-18.3474
 30
0.0
 11
-3.8138
 21
-18.6615
 31
0.0
  0
LINE
  8
0
  5
200
  6
CONTINUOUS
 62
4
 10
-3.6908
 20
-18.6615
 30
0.0
 11
-3.6908
 21
-18.3474
 31
0.0
  0
LINE
  8
0
  5
202
  6
CONTINUOUS
 62
4
 10
-3.5875
 20
23.4831
 30
0.0
 11
-3.5875
 21
23.4236
 31
0.0
  0
LINE
  8
0
  5
204
  6
CONTINUOUS
 62
4
 10
-3.5267
 20
-18.2427
 30
0.0
 11
-3.5267
 21
-18.3474
 31
0.0
  0
LINE
  8
0
  5
206
  6
CONTINUOUS
 62
4
 10
-3.4638
 20
23.4037
 30
0.0
 11
-3.4638
 21
23.503
 31
0.0
  0
LINE
  8
0
  5
208
  6
CONTINUOUS
 62
4
 10
-3.4162
 20
26.3696
 30
0.0
 11
-3.4162
 21
26.4952
 31
0.0
  0
LINE
  8
0
  5
20A
  6
CONTINUOUS
 62
4
 10
-3.4037
 20
-18.3265
 30
0.0
 11
-3.4037
 21
-18.2637
 31
0.0
  0
LINE
  8
0
  5
20C
  6
CONTINUOUS
 62
4
 10
-3.299
 20
23.7412
 30
0.0
 11
-3.299
 21
23.5625
 31
0.0
  0
LINE
  8
0
  5
20E
  6
CONTINUOUS
 62
4
 10
-3.2522
 20
26.3905
 30
0.0
 11
-3.2522
 21
26.2021
 31
0.0
  0
LINE
  8
0
  5
210
  6
CONTINUOUS
 62
4
 10
-3.1959
 20
23.5824
 30
0.0
 11
-3.1959
 21
23.7213
 31
0.0
  0
LINE
  8
0
  5
212
  6
CONTINUOUS
 62
4
 10
-3.1497
 20
26.223
 30
0.0
 11
-3.1497
 21
26.3696
 31
0.0
  0
LINE
  8
0
  5
214
  6
CONTINUOUS
 62
4
 10
-2.9526
 20
-18.7034
 30
0.0
 11
-2.9526
 21
-18.7453
 31
0.0
  0
LINE
  8
0
  5
216
  6
CONTINUOUS
 62
4
 10
-2.8296
 20
-18.7663
 30
0.0
 11
-2.8296
 21
-18.6825
 31
0.0
  0
LINE
  8
0
  5
218
  6
CONTINUOUS
 62
4
 10
-2.6602
 20
23.7213
 30
0.0
 11
-2.6602
 21
23.5824
 31
0.0
  0
LINE
  8
0
  5
21A
  6
CONTINUOUS
 62
4
 10
-8.8239
 20
-7.3197
 30
0.0
 11
-8.8444
 21
-7.3825
 31
0.0
  0
LINE
  8
0
  5
21C
  6
CONTINUOUS
 62
4
 10
-0.0241
 20
14.4702
 30
0.0
 11
-0.0036
 21
14.533
 31
0.0
  0
LINE
  8
0
  5
21E
  6
CONTINUOUS
 62
4
 10
3.4555
 20
20.5001
 30
0.0
 11
3.0156
 21
19.509
 31
0.0
  0
LINE
  8
0
  5
220
  6
CONTINUOUS
 62
4
 10
-10.2182
 20
-6.7334
 30
0.0
 11
-10.2592
 21
-6.8171
 31
0.0
  0
LINE
  8
0
  5
222
  6
CONTINUOUS
 62
4
 10
0.7962
 20
14.5749
 30
0.0
 11
0.7551
 21
14.4911
 31
0.0
  0
LINE
  8
0
  5
224
  6
CONTINUOUS
 62
4
 10
0.5091
 20
13.8838
 30
0.0
 11
0.5501
 21
13.9676
 31
0.0
  0
LINE
  8
0
  5
226
  6
CONTINUOUS
 62
4
 10
-9.357
 20
-6.7334
 30
0.0
 11
-9.398
 21
-6.8171
 31
0.0
  0
LINE
  8
0
  5
228
  6
CONTINUOUS
 62
4
 10
-9.6441
 20
-7.4244
 30
0.0
 11
-9.6031
 21
-7.3407
 31
0.0
  0
LINE
  8
0
  5
22A
  6
CONTINUOUS
 62
4
 10
0.4271
 20
13.9885
 30
0.0
 11
0.386
 21
13.9257
 31
0.0
  0
LINE
  8
0
  5
22C
  6
CONTINUOUS
 62
4
 10
0.8372
 20
14.4283
 30
0.0
 11
0.9192
 21
14.554
 31
0.0
  0
LINE
  8
0
  5
22E
  6
CONTINUOUS
 62
4
 10
1.3293
 20
14.0304
 30
0.0
 11
1.2473
 21
13.9048
 31
0.0
  0
LINE
  8
0
  5
230
  6
CONTINUOUS
 62
4
 10
0.8577
 20
14.6377
 30
0.0
 11
0.7962
 21
14.5749
 31
0.0
  0
LINE
  8
0
  5
232
  6
CONTINUOUS
 62
4
 10
0.4271
 20
13.8001
 30
0.0
 11
0.5091
 21
13.8838
 31
0.0
  0
LINE
  8
0
  5
234
  6
CONTINUOUS
 62
4
 10
1.3088
 20
13.821
 30
0.0
 11
1.3703
 21
13.8838
 31
0.0
  0
LINE
  8
0
  5
236
  6
CONTINUOUS
 62
4
 10
1.7599
 20
14.177
 30
0.0
 11
1.8419
 21
14.2398
 31
0.0
  0
LINE
  8
0
  5
238
  6
CONTINUOUS
 62
4
 10
0.9192
 20
14.554
 30
0.0
 11
0.9807
 21
14.5958
 31
0.0
  0
LINE
  8
0
  5
23A
  6
CONTINUOUS
 62
4
 10
0.386
 20
13.9257
 30
0.0
 11
0.3245
 21
13.8838
 31
0.0
  0
LINE
  8
0
  5
23C
  6
CONTINUOUS
 62
4
 10
1.2473
 20
13.9048
 30
0.0
 11
1.1858
 21
13.8629
 31
0.0
  0
LINE
  8
0
  5
23E
  6
CONTINUOUS
 62
4
 10
2.1905
 20
13.9048
 30
0.0
 11
2.129
 21
13.8629
 31
0.0
  0
LINE
  8
0
  5
240
  6
CONTINUOUS
 62
4
 10
19.9314
 20
26.5933
 30
0.0
 11
19.994
 21
26.6323
 31
0.0
  0
LINE
  8
0
  5
242
  6
CONTINUOUS
 62
4
 10
19.3892
 20
26.0083
 30
0.0
 11
19.3267
 21
25.9693
 31
0.0
  0
LINE
  8
0
  5
244
  6
CONTINUOUS
 62
4
 10
20.8072
 20
26.5933
 30
0.0
 11
20.8697
 21
26.6323
 31
0.0
  0
LINE
  8
0
  5
246
  6
CONTINUOUS
 62
4
 10
20.265
 20
25.9888
 30
0.0
 11
20.2025
 21
25.9498
 31
0.0
  0
LINE
  8
0
  5
248
  6
CONTINUOUS
 62
4
 10
21.2659
 20
25.8912
 30
0.0
 11
21.3285
 21
25.9303
 31
0.0
  0
LINE
  8
0
  5
24A
  6
CONTINUOUS
 62
4
 10
0.9602
 20
14.7006
 30
0.0
 11
0.8577
 21
14.6377
 31
0.0
  0
LINE
  8
0
  5
24C
  6
CONTINUOUS
 62
4
 10
1.8214
 20
14.3445
 30
0.0
 11
1.7189
 21
14.2817
 31
0.0
  0
LINE
  8
0
  5
24E
  6
CONTINUOUS
 62
4
 10
1.2063
 20
13.7582
 30
0.0
 11
1.3088
 21
13.821
 31
0.0
  0
LINE
  8
0
  5
250
  6
CONTINUOUS
 62
4
 10
2.1495
 20
13.7582
 30
0.0
 11
2.252
 21
13.821
 31
0.0
  0
LINE
  8
0
  5
252
  6
CONTINUOUS
 62
4
 10
0.345
 20
13.7582
 30
0.0
 11
0.4271
 21
13.8001
 31
0.0
  0
LINE
  8
0
  5
254
  6
CONTINUOUS
 62
4
 10
0.058
 20
14.5749
 30
0.0
 11
0.1195
 21
14.5958
 31
0.0
  0
LINE
  8
0
  5
256
  6
CONTINUOUS
 62
4
 10
-7.4526
 20
10.873
 30
0.0
 11
0.7385
 21
13.3683
 31
0.0
  0
LINE
  8
0
  5
258
  6
CONTINUOUS
 62
4
 10
3.0197
 20
-8.3352
 30
0.0
 11
9.9095
 21
-8.3352
 31
0.0
  0
LINE
  8
0
  5
25A
  6
CONTINUOUS
 62
4
 10
-10.7103
 20
-7.571
 30
0.0
 11
-10.5873
 21
-7.571
 31
0.0
  0
LINE
  8
0
  5
25C
  6
CONTINUOUS
 62
4
 10
-9.0699
 20
-7.571
 30
0.0
 11
-8.9674
 21
-7.571
 31
0.0
  0
LINE
  8
0
  5
25E
  6
CONTINUOUS
 62
4
 10
-8.9674
 20
-7.4454
 30
0.0
 11
-9.0904
 21
-7.4454
 31
0.0
  0
LINE
  8
0
  5
260
  6
CONTINUOUS
 62
4
 10
-9.2135
 20
-7.3407
 30
0.0
 11
-9.3365
 21
-7.3407
 31
0.0
  0
LINE
  8
0
  5
262
  6
CONTINUOUS
 62
4
 10
-7.8377
 20
10.1125
 30
0.0
 11
-7.1859
 21
8.2549
 31
0.0
  0
LINE
  8
0
  5
264
  6
CONTINUOUS
 62
4
 10
-2.6165
 20
26.3696
 30
0.0
 11
-2.6165
 21
26.223
 31
0.0
  0
LINE
  8
0
  5
266
  6
CONTINUOUS
 62
4
 10
-2.5571
 20
23.5625
 30
0.0
 11
-2.5571
 21
23.7412
 31
0.0
  0
LINE
  8
0
  5
268
  6
CONTINUOUS
 62
4
 10
-2.514
 20
26.2021
 30
0.0
 11
-2.514
 21
26.3905
 31
0.0
  0
LINE
  8
0
  5
26A
  6
CONTINUOUS
 62
4
 10
-2.3923
 20
23.2846
 30
0.0
 11
-2.3923
 21
23.1854
 31
0.0
  0
LINE
  8
0
  5
26C
  6
CONTINUOUS
 62
4
 10
-2.35
 20
26.5581
 30
0.0
 11
-2.35
 21
26.4534
 31
0.0
  0
LINE
  8
0
  5
26E
  6
CONTINUOUS
 62
4
 10
-2.2269
 20
26.4743
 30
0.0
 11
-2.2269
 21
26.5371
 31
0.0
  0
LINE
  8
0
  5
270
  6
CONTINUOUS
 62
4
 10
-1.7758
 20
26.0974
 30
0.0
 11
-1.7758
 21
26.0555
 31
0.0
  0
LINE
  8
0
  5
272
  6
CONTINUOUS
 62
4
 10
-1.7741
 20
23.9
 30
0.0
 11
-1.7741
 21
23.8603
 31
0.0
  0
LINE
  8
0
  5
274
  6
CONTINUOUS
 62
4
 10
-1.6528
 20
26.0345
 30
0.0
 11
-1.6528
 21
26.1183
 31
0.0
  0
LINE
  8
0
  5
276
  6
CONTINUOUS
 62
4
 10
-1.6504
 20
23.1854
 30
0.0
 11
-1.6504
 21
23.2846
 31
0.0
  0
LINE
  8
0
  5
278
  6
CONTINUOUS
 62
4
 10
-1.6504
 20
23.8603
 30
0.0
 11
-1.6504
 21
23.9
 31
0.0
  0
LINE
  8
0
  5
27A
  6
CONTINUOUS
 62
4
 10
0.8167
 20
14.3027
 30
0.0
 11
0.8372
 21
14.4283
 31
0.0
  0
LINE
  8
0
  5
27C
  6
CONTINUOUS
 62
4
 10
0.7346
 20
14.4283
 30
0.0
 11
0.7141
 21
14.3236
 31
0.0
  0
LINE
  8
0
  5
27E
  6
CONTINUOUS
 62
4
 10
-0.1266
 20
14.5749
 30
0.0
 11
-0.1471
 21
14.4911
 31
0.0
  0
LINE
  8
0
  5
280
  6
CONTINUOUS
 62
4
 10
0.7551
 20
14.4911
 30
0.0
 11
0.7346
 21
14.4283
 31
0.0
  0
LINE
  8
0
  5
282
  6
CONTINUOUS
 62
4
 10
1.4113
 20
13.9676
 30
0.0
 11
1.4318
 21
14.0304
 31
0.0
  0
LINE
  8
0
  5
284
  6
CONTINUOUS
 62
4
 10
2.252
 20
14.0304
 30
0.0
 11
2.2315
 21
13.9676
 31
0.0
  0
LINE
  8
0
  5
286
  6
CONTINUOUS
 62
4
 10
2.3135
 20
13.9048
 30
0.0
 11
2.3546
 21
14.0095
 31
0.0
  0
LINE
  8
0
  5
288
  6
CONTINUOUS
 62
4
 10
1.3703
 20
13.8838
 30
0.0
 11
1.4113
 21
13.9676
 31
0.0
  0
LINE
  8
0
  5
28A
  6
CONTINUOUS
 62
4
 10
2.2315
 20
13.9676
 30
0.0
 11
2.1905
 21
13.9048
 31
0.0
  0
LINE
  8
0
  5
28C
  6
CONTINUOUS
 62
4
 10
-10.1772
 20
-6.88
 30
0.0
 11
-10.0952
 21
-6.7543
 31
0.0
  0
LINE
  8
0
  5
28E
  6
CONTINUOUS
 62
4
 10
-9.6851
 20
-7.2778
 30
0.0
 11
-9.7671
 21
-7.4035
 31
0.0
  0
LINE
  8
0
  5
290
  6
CONTINUOUS
 62
4
 10
-9.275
 20
-6.8381
 30
0.0
 11
-9.234
 21
-6.7752
 31
0.0
  0
LINE
  8
0
  5
292
  6
CONTINUOUS
 62
4
 10
2.252
 20
13.821
 30
0.0
 11
2.3135
 21
13.9048
 31
0.0
  0
LINE
  8
0
  5
294
  6
CONTINUOUS
 62
4
 10
18.9514
 20
26.6908
 30
0.0
 11
18.8679
 21
26.6128
 31
0.0
  0
LINE
  8
0
  5
296
  6
CONTINUOUS
 62
4
 10
19.8688
 20
26.6713
 30
0.0
 11
19.8063
 21
26.6128
 31
0.0
  0
LINE
  8
0
  5
298
  6
CONTINUOUS
 62
4
 10
21.2242
 20
26.3008
 30
0.0
 11
21.3076
 21
26.3593
 31
0.0
  0
LINE
  8
0
  5
29A
  6
CONTINUOUS
 62
4
 10
10.7155
 20
-4.8899
 30
0.0
 11
10.613
 21
-4.9108
 31
0.0
  0
LINE
  8
0
  5
29C
  6
CONTINUOUS
 62
4
 10
11.4127
 20
-4.471
 30
0.0
 11
11.3101
 21
-4.492
 31
0.0
  0
LINE
  8
0
  5
29E
  6
CONTINUOUS
 62
4
 10
10.613
 20
-5.0155
 30
0.0
 11
10.736
 21
-4.9946
 31
0.0
  0
LINE
  8
0
  5
2A0
  6
CONTINUOUS
 62
4
 10
-9.0904
 20
-7.1522
 30
0.0
 11
-8.9674
 21
-7.1522
 31
0.0
  0
LINE
  8
0
  5
2A2
  6
CONTINUOUS
 62
4
 10
-8.9674
 20
-7.0265
 30
0.0
 11
-9.0904
 21
-7.0265
 31
0.0
  0
LINE
  8
0
  5
2A4
  6
CONTINUOUS
 62
4
 10
-8.7623
 20
-6.859
 30
0.0
 11
-8.6393
 21
-6.859
 31
0.0
  0
LINE
  8
0
  5
2A6
  6
CONTINUOUS
 62
4
 10
-9.0904
 20
-6.7124
 30
0.0
 11
-8.9264
 21
-6.7124
 31
0.0
  0
LINE
  8
0
  5
2A8
  6
CONTINUOUS
 62
4
 10
-8.9264
 20
-6.5868
 30
0.0
 11
-9.0904
 21
-6.5868
 31
0.0
  0
LINE
  8
0
  5
2AA
  6
CONTINUOUS
 62
4
 10
-10.5873
 20
-6.5868
 30
0.0
 11
-10.7103
 21
-6.5868
 31
0.0
  0
LINE
  8
0
  5
2AC
  6
CONTINUOUS
 62
4
 10
3.0197
 20
-6.3667
 30
0.0
 11
9.9095
 21
-6.3667
 31
0.0
  0
LINE
  8
0
  5
2AE
  6
CONTINUOUS
 62
4
 10
3.0634
 20
-5.973
 30
0.0
 11
2.9453
 21
-5.973
 31
0.0
  0
LINE
  8
0
  5
2B0
  6
CONTINUOUS
 62
4
 10
3.0634
 20
-5.6187
 30
0.0
 11
2.9453
 21
-5.6187
 31
0.0
  0
LINE
  8
0
  5
2B2
  6
CONTINUOUS
 62
4
 10
-4.0232
 20
-5.5793
 30
0.0
 11
2.9453
 21
-5.5793
 31
0.0
  0
LINE
  8
0
  5
2B4
  6
CONTINUOUS
 62
4
 10
9.8338
 20
-5.0155
 30
0.0
 11
9.9568
 21
-5.0155
 31
0.0
  0
LINE
  8
0
  5
2B6
  6
CONTINUOUS
 62
4
 10
11.4127
 20
-5.0155
 30
0.0
 11
11.9048
 21
-5.0155
 31
0.0
  0
LINE
  8
0
  5
2B8
  6
CONTINUOUS
 62
4
 10
11.7818
 20
-4.9108
 30
0.0
 11
11.3921
 21
-4.9108
 31
0.0
  0
LINE
  8
0
  5
2BA
  6
CONTINUOUS
 62
4
 10
25.071
 20
-6.3192
 30
0.0
 11
8.4593
 21
-5.7391
 31
0.0
  0
LINE
  8
0
  5
2BC
  6
CONTINUOUS
 62
4
 10
25.0834
 20
-5.9651
 30
0.0
 11
8.4717
 21
-5.385
 31
0.0
  0
LINE
  8
0
  5
2BE
  6
CONTINUOUS
 62
4
 10
32.067
 20
-5.7757
 30
0.0
 11
25.0985
 21
-5.5323
 31
0.0
  0
LINE
  8
0
  5
2C0
  6
CONTINUOUS
 62
4
 10
-8.7242
 20
19.509
 30
0.0
 11
-9.164
 21
20.5001
 31
0.0
  0
LINE
  8
0
  5
2C2
  6
CONTINUOUS
 62
4
 10
-0.1471
 20
14.4911
 30
0.0
 11
-0.1471
 21
14.4074
 31
0.0
  0
LINE
  8
0
  5
2C4
  6
CONTINUOUS
 62
4
 10
-0.0241
 20
14.4283
 30
0.0
 11
-0.0241
 21
14.4702
 31
0.0
  0
LINE
  8
0
  5
2C6
  6
CONTINUOUS
 62
4
 10
0.4271
 20
14.0514
 30
0.0
 11
0.4271
 21
13.9885
 31
0.0
  0
LINE
  8
0
  5
2C8
  6
CONTINUOUS
 62
4
 10
0.5501
 20
13.9676
 30
0.0
 11
0.5501
 21
14.0723
 31
0.0
  0
LINE
  8
0
  5
2CA
  6
CONTINUOUS
 62
4
 10
0.7141
 20
14.3236
 30
0.0
 11
0.7141
 21
14.1351
 31
0.0
  0
LINE
  8
0
  5
2CC
  6
CONTINUOUS
 62
4
 10
0.8167
 20
14.1561
 30
0.0
 11
0.8167
 21
14.3027
 31
0.0
  0
LINE
  8
0
  5
2CE
  6
CONTINUOUS
 62
4
 10
1.3498
 20
14.3027
 30
0.0
 11
1.3498
 21
14.1561
 31
0.0
  0
LINE
  8
0
  5
2D0
  6
CONTINUOUS
 62
4
 10
1.4523
 20
14.1351
 30
0.0
 11
1.4523
 21
14.3236
 31
0.0
  0
LINE
  8
0
  5
2D2
  6
CONTINUOUS
 62
4
 10
1.6164
 20
14.7215
 30
0.0
 11
1.6164
 21
14.177
 31
0.0
  0
LINE
  8
0
  5
2D4
  6
CONTINUOUS
 62
4
 10
1.7189
 20
14.2817
 30
0.0
 11
1.7189
 21
14.6168
 31
0.0
  0
LINE
  8
0
  5
2D6
  6
CONTINUOUS
 62
4
 10
1.3498
 20
14.1561
 30
0.0
 11
1.3293
 21
14.0304
 31
0.0
  0
LINE
  8
0
  5
2D8
  6
CONTINUOUS
 62
4
 10
1.4318
 20
14.0304
 30
0.0
 11
1.4523
 21
14.1351
 31
0.0
  0
LINE
  8
0
  5
2DA
  6
CONTINUOUS
 62
4
 10
-4.4905
 20
-18.2427
 30
0.0
 11
-4.511
 21
-18.3474
 31
0.0
  0
LINE
  8
0
  5
2DC
  6
CONTINUOUS
 62
4
 10
-3.7113
 20
-18.7663
 30
0.0
 11
-3.6908
 21
-18.6615
 31
0.0
  0
LINE
  8
0
  5
2DE
  6
CONTINUOUS
 62
4
 10
-4.388
 20
-18.3474
 30
0.0
 11
-4.3675
 21
-18.2637
 31
0.0
  0
LINE
  8
0
  5
2E0
  6
CONTINUOUS
 62
4
 10
-6.3325
 20
-15.7544
 30
0.0
 11
-6.5578
 21
-16.5081
 31
0.0
  0
LINE
  8
0
  5
2E2
  6
CONTINUOUS
 62
4
 10
-10.4643
 20
-7.2569
 30
0.0
 11
-10.5873
 21
-7.4035
 31
0.0
  0
LINE
  8
0
  5
2E4
  6
CONTINUOUS
 62
4
 10
-10.5873
 20
-7.571
 30
0.0
 11
-10.4643
 21
-7.4244
 31
0.0
  0
LINE
  8
0
  5
2E6
  6
CONTINUOUS
 62
4
 10
-12.173
 20
-3.6815
 30
0.0
 11
-10.1506
 21
-1.7617
 31
0.0
  0
LINE
  8
0
  5
2E8
  6
CONTINUOUS
 62
4
 10
19.431
 20
25.8912
 30
0.0
 11
19.5144
 21
25.9693
 31
0.0
  0
LINE
  8
0
  5
2EA
  6
CONTINUOUS
 62
4
 10
20.7655
 20
26.6908
 30
0.0
 11
20.6821
 21
26.6128
 31
0.0
  0
LINE
  8
0
  5
2EC
  6
CONTINUOUS
 62
4
 10
20.3276
 20
25.9108
 30
0.0
 11
20.3901
 21
25.9693
 31
0.0
  0
LINE
  8
0
  5
2EE
  6
CONTINUOUS
 62
4
 10
21.2242
 20
26.4178
 30
0.0
 11
21.1825
 21
26.3788
 31
0.0
  0
LINE
  8
0
  5
2F0
  6
CONTINUOUS
 62
4
 10
21.2659
 20
26.0083
 30
0.0
 11
21.2242
 21
25.9693
 31
0.0
  0
LINE
  8
0
  5
2F2
  6
CONTINUOUS
 62
4
 10
-8.9674
 20
-7.571
 30
0.0
 11
-8.8854
 21
-7.5501
 31
0.0
  0
LINE
  8
0
  5
2F4
  6
CONTINUOUS
 62
4
 10
10.5104
 20
-4.1569
 30
0.0
 11
10.613
 21
-4.136
 31
0.0
  0
LINE
  8
0
  5
2F6
  6
CONTINUOUS
 62
4
 10
-9.8286
 20
-7.4454
 30
0.0
 11
-9.9311
 21
-7.4663
 31
0.0
  0
LINE
  8
0
  5
2F8
  6
CONTINUOUS
 62
4
 10
-9.0904
 20
-6.5868
 30
0.0
 11
-9.193
 21
-6.6077
 31
0.0
  0
LINE
  8
0
  5
2FA
  6
CONTINUOUS
 62
4
 10
-10.0337
 20
-6.7124
 30
0.0
 11
-9.9311
 21
-6.6915
 31
0.0
  0
LINE
  8
0
  5
2FC
  6
CONTINUOUS
 62
4
 10
-9.9311
 20
-7.571
 30
0.0
 11
-9.8081
 21
-7.5501
 31
0.0
  0
LINE
  8
0
  5
2FE
  6
CONTINUOUS
 62
4
 10
10.613
 20
-4.0313
 30
0.0
 11
10.4899
 21
-4.0522
 31
0.0
  0
LINE
  8
0
  5
300
  6
CONTINUOUS
 62
4
 10
-9.9311
 20
-6.5868
 30
0.0
 11
-10.0542
 21
-6.6077
 31
0.0
  0
LINE
  8
0
  5
302
  6
CONTINUOUS
 62
4
 10
2.6993
 20
-3.8364
 30
0.0
 11
-4.0232
 21
-4.0045
 31
0.0
  0
LINE
  8
0
  5
304
  6
CONTINUOUS
 62
4
 10
11.3921
 20
-4.5967
 30
0.0
 11
11.7818
 21
-4.5967
 31
0.0
  0
LINE
  8
0
  5
306
  6
CONTINUOUS
 62
4
 10
11.7818
 20
-4.471
 30
0.0
 11
11.4127
 21
-4.471
 31
0.0
  0
LINE
  8
0
  5
308
  6
CONTINUOUS
 62
4
 10
11.9048
 20
-4.0313
 30
0.0
 11
11.7818
 21
-4.0313
 31
0.0
  0
LINE
  8
0
  5
30A
  6
CONTINUOUS
 62
4
 10
9.9568
 20
-4.0313
 30
0.0
 11
9.8338
 21
-4.0313
 31
0.0
  0
LINE
  8
0
  5
30C
  6
CONTINUOUS
 62
4
 10
21.2907
 20
-4.6115
 30
0.0
 11
17.6171
 21
-4.4832
 31
0.0
  0
LINE
  8
0
  5
30E
  6
CONTINUOUS
 62
4
 10
32.067
 20
-4.595
 30
0.0
 11
24.7785
 21
-4.0818
 31
0.0
  0
LINE
  8
0
  5
310
  6
CONTINUOUS
 62
4
 10
10.4899
 20
-4.9946
 30
0.0
 11
10.613
 21
-5.0155
 31
0.0
  0
LINE
  8
0
  5
312
  6
CONTINUOUS
 62
4
 10
10.736
 20
-4.0522
 30
0.0
 11
10.613
 21
-4.0313
 31
0.0
  0
LINE
  8
0
  5
314
  6
CONTINUOUS
 62
4
 10
10.613
 20
-4.9108
 30
0.0
 11
10.5104
 21
-4.8899
 31
0.0
  0
LINE
  8
0
  5
316
  6
CONTINUOUS
 62
4
 10
11.3101
 20
-4.9946
 30
0.0
 11
11.4127
 21
-5.0155
 31
0.0
  0
LINE
  8
0
  5
318
  6
CONTINUOUS
 62
4
 10
10.613
 20
-4.136
 30
0.0
 11
10.7155
 21
-4.1569
 31
0.0
  0
LINE
  8
0
  5
31A
  6
CONTINUOUS
 62
4
 10
11.3921
 20
-4.9108
 30
0.0
 11
11.3306
 21
-4.8899
 31
0.0
  0
LINE
  8
0
  5
31C
  6
CONTINUOUS
 62
4
 10
-4.2263
 20
23.4434
 30
0.0
 11
-4.2057
 21
23.364
 31
0.0
  0
LINE
  8
0
  5
31E
  6
CONTINUOUS
 62
4
 10
-4.1645
 20
23.8206
 30
0.0
 11
-4.1439
 21
23.7412
 31
0.0
  0
LINE
  8
0
  5
320
  6
CONTINUOUS
 62
4
 10
-3.299
 20
23.5625
 30
0.0
 11
-3.2784
 21
23.4633
 31
0.0
  0
LINE
  8
0
  5
322
  6
CONTINUOUS
 62
4
 10
-2.5571
 20
23.7412
 30
0.0
 11
-2.5777
 21
23.8405
 31
0.0
  0
LINE
  8
0
  5
324
  6
CONTINUOUS
 62
4
 10
-3.2522
 20
26.2021
 30
0.0
 11
-3.2317
 21
26.0974
 31
0.0
  0
LINE
  8
0
  5
326
  6
CONTINUOUS
 62
4
 10
-3.1753
 20
23.4633
 30
0.0
 11
-3.1959
 21
23.5824
 31
0.0
  0
LINE
  8
0
  5
328
  6
CONTINUOUS
 62
4
 10
-2.6808
 20
23.8405
 30
0.0
 11
-2.6602
 21
23.7213
 31
0.0
  0
LINE
  8
0
  5
32A
  6
CONTINUOUS
 62
4
 10
-3.1292
 20
26.0974
 30
0.0
 11
-3.1497
 21
26.223
 31
0.0
  0
LINE
  8
0
  5
32C
  6
CONTINUOUS
 62
4
 10
-2.6371
 20
26.4952
 30
0.0
 11
-2.6165
 21
26.3696
 31
0.0
  0
LINE
  8
0
  5
32E
  6
CONTINUOUS
 62
4
 10
2.252
 20
14.0723
 30
0.0
 11
2.252
 21
14.0304
 31
0.0
  0
LINE
  8
0
  5
330
  6
CONTINUOUS
 62
4
 10
2.3135
 20
14.6168
 30
0.0
 11
2.3135
 21
14.7215
 31
0.0
  0
LINE
  8
0
  5
332
  6
CONTINUOUS
 62
4
 10
2.3546
 20
14.0095
 30
0.0
 11
2.3546
 21
14.0933
 31
0.0
  0
LINE
  8
0
  5
334
  6
CONTINUOUS
 62
4
 10
2.9453
 20
-5.973
 30
0.0
 11
2.9453
 21
-5.5793
 31
0.0
  0
LINE
  8
0
  5
336
  6
CONTINUOUS
 62
4
 10
3.0634
 20
-5.6187
 30
0.0
 11
3.0634
 21
-5.973
 31
0.0
  0
LINE
  8
0
  5
338
  6
CONTINUOUS
 62
4
 10
3.8508
 20
0.3838
 30
0.0
 11
3.8508
 21
-2.6557
 31
0.0
  0
LINE
  8
0
  5
33A
  6
CONTINUOUS
 62
4
 10
2.9453
 20
2.8077
 30
0.0
 11
2.9762
 21
3.5945
 31
0.0
  0
LINE
  8
0
  5
33C
  6
CONTINUOUS
 62
4
 10
-3.8138
 20
-18.6615
 30
0.0
 11
-3.8343
 21
-18.7453
 31
0.0
  0
LINE
  8
0
  5
33E
  6
CONTINUOUS
 62
4
 10
-2.8501
 20
-18.85
 30
0.0
 11
-2.8296
 21
-18.7663
 31
0.0
  0
LINE
  8
0
  5
340
  6
CONTINUOUS
 62
4
 10
-10.1567
 20
-6.6705
 30
0.0
 11
-10.2182
 21
-6.7334
 31
0.0
  0
LINE
  8
0
  5
342
  6
CONTINUOUS
 62
4
 10
-9.275
 20
-6.6496
 30
0.0
 11
-9.357
 21
-6.7334
 31
0.0
  0
LINE
  8
0
  5
344
  6
CONTINUOUS
 62
4
 10
-9.7056
 20
-7.4873
 30
0.0
 11
-9.6441
 21
-7.4244
 31
0.0
  0
LINE
  8
0
  5
346
  6
CONTINUOUS
 62
4
 10
-8.8034
 20
-7.5082
 30
0.0
 11
-8.7213
 21
-7.4244
 31
0.0
  0
LINE
  8
0
  5
348
  6
CONTINUOUS
 62
4
 10
-9.1724
 20
-6.7334
 30
0.0
 11
-9.0904
 21
-6.7124
 31
0.0
  0
LINE
  8
0
  5
34A
  6
CONTINUOUS
 62
4
 10
10.3874
 20
-4.9317
 30
0.0
 11
10.4899
 21
-4.9946
 31
0.0
  0
LINE
  8
0
  5
34C
  6
CONTINUOUS
 62
4
 10
10.8385
 20
-4.115
 30
0.0
 11
10.736
 21
-4.0522
 31
0.0
  0
LINE
  8
0
  5
34E
  6
CONTINUOUS
 62
4
 10
10.5104
 20
-4.8899
 30
0.0
 11
10.4489
 21
-4.848
 31
0.0
  0
LINE
  8
0
  5
350
  6
CONTINUOUS
 62
4
 10
10.7155
 20
-4.1569
 30
0.0
 11
10.777
 21
-4.1988
 31
0.0
  0
LINE
  8
0
  5
352
  6
CONTINUOUS
 62
4
 10
11.2281
 20
-4.9317
 30
0.0
 11
11.3101
 21
-4.9946
 31
0.0
  0
LINE
  8
0
  5
354
  6
CONTINUOUS
 62
4
 10
10.3259
 20
-4.8689
 30
0.0
 11
10.3874
 21
-4.9317
 31
0.0
  0
LINE
  8
0
  5
356
  6
CONTINUOUS
 62
4
 10
7.2531
 20
-4.3434
 30
0.0
 11
7.4505
 21
-4.6376
 31
0.0
  0
LINE
  8
0
  5
358
  6
CONTINUOUS
 62
4
 10
-4.0821
 20
23.3839
 30
0.0
 11
-4.1027
 21
23.4434
 31
0.0
  0
LINE
  8
0
  5
35A
  6
CONTINUOUS
 62
4
 10
-4.0202
 20
23.7809
 30
0.0
 11
-4.0408
 21
23.8405
 31
0.0
  0
LINE
  8
0
  5
35C
  6
CONTINUOUS
 62
4
 10
-3.5257
 20
23.9
 30
0.0
 11
-3.5463
 21
23.9596
 31
0.0
  0
LINE
  8
0
  5
35E
  6
CONTINUOUS
 62
4
 10
-3.2784
 20
23.4633
 30
0.0
 11
-3.2578
 21
23.4037
 31
0.0
  0
LINE
  8
0
  5
360
  6
CONTINUOUS
 62
4
 10
-0.0036
 20
14.3655
 30
0.0
 11
-0.0241
 21
14.4283
 31
0.0
  0
LINE
  8
0
  5
362
  6
CONTINUOUS
 62
4
 10
-0.0651
 20
13.9467
 30
0.0
 11
-0.0856
 21
14.0095
 31
0.0
  0
LINE
  8
0
  5
364
  6
CONTINUOUS
 62
4
 10
-1.6504
 20
23.9
 30
0.0
 11
-1.671
 21
23.9794
 31
0.0
  0
LINE
  8
0
  5
366
  6
CONTINUOUS
 62
4
 10
-0.2086
 20
14.0095
 30
0.0
 11
-0.1881
 21
13.9257
 31
0.0
  0
LINE
  8
0
  5
368
  6
CONTINUOUS
 62
4
 10
-0.1471
 20
14.4074
 30
0.0
 11
-0.1266
 21
14.3236
 31
0.0
  0
LINE
  8
0
  5
36A
  6
CONTINUOUS
 62
4
 10
-1.6528
 20
26.1183
 30
0.0
 11
-1.6733
 21
26.2021
 31
0.0
  0
LINE
  8
0
  5
36C
  6
CONTINUOUS
 62
4
 10
-1.5913
 20
26.5162
 30
0.0
 11
-1.6118
 21
26.6
 31
0.0
  0
LINE
  8
0
  5
36E
  6
CONTINUOUS
 62
4
 10
-2.514
 20
26.3905
 30
0.0
 11
-2.5345
 21
26.4952
 31
0.0
  0
LINE
  8
0
  5
370
  6
CONTINUOUS
 62
4
 10
0.7141
 20
14.1351
 30
0.0
 11
0.7346
 21
14.0304
 31
0.0
  0
LINE
  8
0
  5
372
  6
CONTINUOUS
 62
4
 10
1.4523
 20
14.3236
 30
0.0
 11
1.4318
 21
14.4283
 31
0.0
  0
LINE
  8
0
  5
374
  6
CONTINUOUS
 62
4
 10
0.8372
 20
14.0304
 30
0.0
 11
0.8167
 21
14.1561
 31
0.0
  0
LINE
  8
0
  5
376
  6
CONTINUOUS
 62
4
 10
1.3293
 20
14.4283
 30
0.0
 11
1.3498
 21
14.3027
 31
0.0
  0
LINE
  8
0
  5
378
  6
CONTINUOUS
 62
4
 10
5.5119
 20
18.3531
 30
0.0
 11
5.5119
 21
19.5861
 31
0.0
  0
LINE
  8
0
  5
37A
  6
CONTINUOUS
 62
4
 10
5.8193
 20
1.0878
 30
0.0
 11
5.8193
 21
-1.1442
 31
0.0
  0
LINE
  8
0
  5
37C
  6
CONTINUOUS
 62
4
 10
-2.9526
 20
-18.7453
 30
0.0
 11
-2.9731
 21
-18.8081
 31
0.0
  0
LINE
  8
0
  5
37E
  6
CONTINUOUS
 62
4
 10
-5.0031
 20
-18.0124
 30
0.0
 11
-5.4132
 21
-18.8919
 31
0.0
  0
LINE
  8
0
  5
380
  6
CONTINUOUS
 62
4
 10
-5.2902
 20
-18.8919
 30
0.0
 11
-4.8801
 21
-18.0124
 31
0.0
  0
LINE
  8
0
  5
382
  6
CONTINUOUS
 62
4
 10
19.431
 20
26.0668
 30
0.0
 11
19.3892
 21
26.0083
 31
0.0
  0
LINE
  8
0
  5
384
  6
CONTINUOUS
 62
4
 10
19.848
 20
26.4763
 30
0.0
 11
19.9314
 21
26.5933
 31
0.0
  0
LINE
  8
0
  5
386
  6
CONTINUOUS
 62
4
 10
20.3484
 20
26.1058
 30
0.0
 11
20.265
 21
25.9888
 31
0.0
  0
LINE
  8
0
  5
388
  6
CONTINUOUS
 62
4
 10
20.7655
 20
26.5348
 30
0.0
 11
20.8072
 21
26.5933
 31
0.0
  0
LINE
  8
0
  5
38A
  6
CONTINUOUS
 62
4
 10
21.3076
 20
26.3593
 30
0.0
 11
21.3493
 21
26.4178
 31
0.0
  0
LINE
  8
0
  5
38C
  6
CONTINUOUS
 62
4
 10
21.3285
 20
25.9303
 30
0.0
 11
21.3702
 21
25.9888
 31
0.0
  0
LINE
  8
0
  5
38E
  6
CONTINUOUS
 62
4
 10
21.712
 20
12.9029
 30
0.0
 11
16.5249
 21
11.0241
 31
0.0
  0
LINE
  8
0
  5
390
  6
CONTINUOUS
 62
4
 10
22.4936
 20
4.841
 30
0.0
 11
31.1811
 21
7.2522
 31
0.0
  0
LINE
  8
0
  5
392
  6
CONTINUOUS
 62
4
 10
14.5837
 20
1.4664
 30
0.0
 11
14.5017
 21
1.4455
 31
0.0
  0
LINE
  8
0
  5
394
  6
CONTINUOUS
 62
4
 10
14.3376
 20
1.7806
 30
0.0
 11
14.4196
 21
1.8015
 31
0.0
  0
LINE
  8
0
  5
396
  6
CONTINUOUS
 62
4
 10
14.5837
 20
1.9062
 30
0.0
 11
14.5017
 21
1.8853
 31
0.0
  0
LINE
  8
0
  5
398
  6
CONTINUOUS
 62
4
 10
14.3376
 20
2.1994
 30
0.0
 11
14.4196
 21
2.2203
 31
0.0
  0
LINE
  8
0
  5
39A
  6
CONTINUOUS
 62
4
 10
23.0661
 20
5.4613
 30
0.0
 11
23.1481
 21
5.4822
 31
0.0
  0
LINE
  8
0
  5
39C
  6
CONTINUOUS
 62
4
 10
14.5222
 20
1.3408
 30
0.0
 11
14.6247
 21
1.3617
 31
0.0
  0
LINE
  8
0
  5
39E
  6
CONTINUOUS
 62
4
 10
13.6609
 20
1.4664
 30
0.0
 11
13.5584
 21
1.4455
 31
0.0
  0
LINE
  8
0
  5
3A0
  6
CONTINUOUS
 62
4
 10
12.7587
 20
1.7806
 30
0.0
 11
12.8612
 21
1.8015
 31
0.0
  0
LINE
  8
0
  5
3A2
  6
CONTINUOUS
 62
4
 10
14.4196
 20
2.325
 30
0.0
 11
14.3171
 21
2.3041
 31
0.0
  0
LINE
  8
0
  5
3A4
  6
CONTINUOUS
 62
4
 10
13.4559
 20
2.1994
 30
0.0
 11
13.5584
 21
2.2203
 31
0.0
  0
LINE
  8
0
  5
3A6
  6
CONTINUOUS
 62
4
 10
13.5584
 20
1.3408
 30
0.0
 11
13.6815
 21
1.3617
 31
0.0
  0
LINE
  8
0
  5
3A8
  6
CONTINUOUS
 62
4
 10
13.5584
 20
2.325
 30
0.0
 11
13.4354
 21
2.3041
 31
0.0
  0
LINE
  8
0
  5
3AA
  6
CONTINUOUS
 62
4
 10
24.7785
 20
0.9941
 30
0.0
 11
32.067
 21
1.5073
 31
0.0
  0
LINE
  8
0
  5
3AC
  6
CONTINUOUS
 62
4
 10
12.2666
 20
1.3408
 30
0.0
 11
12.3896
 21
1.3408
 31
0.0
  0
LINE
  8
0
  5
3AE
  6
CONTINUOUS
 62
4
 10
14.3991
 20
1.3408
 30
0.0
 11
14.5222
 21
1.3408
 31
0.0
  0
LINE
  8
0
  5
3B0
  6
CONTINUOUS
 62
4
 10
14.5017
 20
1.4455
 30
0.0
 11
14.4196
 21
1.4455
 31
0.0
  0
LINE
  8
0
  5
3B2
  6
CONTINUOUS
 62
4
 10
15.5044
 20
1.5287
 30
0.0
 11
15.8587
 21
1.5287
 31
0.0
  0
LINE
  8
0
  5
3B4
  6
CONTINUOUS
 62
4
 10
12.3896
 20
1.7806
 30
0.0
 11
12.7587
 21
1.7806
 31
0.0
  0
LINE
  8
0
  5
3B6
  6
CONTINUOUS
 62
4
 10
14.4196
 20
1.8015
 30
0.0
 11
14.5017
 21
1.8015
 31
0.0
  0
LINE
  8
0
  5
3B8
  6
CONTINUOUS
 62
4
 10
14.5017
 20
1.8853
 30
0.0
 11
14.4196
 21
1.8853
 31
0.0
  0
LINE
  8
0
  5
3BA
  6
CONTINUOUS
 62
4
 10
8.1728
 20
1.8143
 30
0.0
 11
6.6377
 21
1.8746
 31
0.0
  0
LINE
  8
0
  5
3BC
  6
CONTINUOUS
 62
4
 10
-4.0232
 20
1.901
 30
0.0
 11
2.7287
 21
1.5634
 31
0.0
  0
LINE
  8
0
  5
3BE
  6
CONTINUOUS
 62
4
 10
11.3306
 20
-4.8899
 30
0.0
 11
11.2896
 21
-4.848
 31
0.0
  0
LINE
  8
0
  5
3C0
  6
CONTINUOUS
 62
4
 10
10.9
 20
-4.1779
 30
0.0
 11
10.8385
 21
-4.115
 31
0.0
  0
LINE
  8
0
  5
3C2
  6
CONTINUOUS
 62
4
 10
11.1666
 20
-4.848
 30
0.0
 11
11.2281
 21
-4.9317
 31
0.0
  0
LINE
  8
0
  5
3C4
  6
CONTINUOUS
 62
4
 10
10.4489
 20
-4.848
 30
0.0
 11
10.3669
 21
-4.7223
 31
0.0
  0
LINE
  8
0
  5
3C6
  6
CONTINUOUS
 62
4
 10
10.777
 20
-4.1988
 30
0.0
 11
10.859
 21
-4.3244
 31
0.0
  0
LINE
  8
0
  5
3C8
  6
CONTINUOUS
 62
4
 10
-0.1881
 20
13.9257
 30
0.0
 11
-0.1266
 21
13.821
 31
0.0
  0
LINE
  8
0
  5
3CA
  6
CONTINUOUS
 62
4
 10
8.2765
 20
-4.5736
 30
0.0
 11
8.1045
 21
-4.2639
 31
0.0
  0
LINE
  8
0
  5
3CC
  6
CONTINUOUS
 62
4
 10
0.345
 20
14.533
 30
0.0
 11
0.3655
 21
14.4911
 31
0.0
  0
LINE
  8
0
  5
3CE
  6
CONTINUOUS
 62
4
 10
0.5501
 20
14.0723
 30
0.0
 11
0.5091
 21
14.1561
 31
0.0
  0
LINE
  8
0
  5
3D0
  6
CONTINUOUS
 62
4
 10
0.7551
 20
13.9676
 30
0.0
 11
0.7962
 21
13.8838
 31
0.0
  0
LINE
  8
0
  5
3D2
  6
CONTINUOUS
 62
4
 10
10.2849
 20
-4.7852
 30
0.0
 11
10.3259
 21
-4.8689
 31
0.0
  0
LINE
  8
0
  5
3D4
  6
CONTINUOUS
 62
4
 10
-2.5777
 20
23.8405
 30
0.0
 11
-2.5983
 21
23.9
 31
0.0
  0
LINE
  8
0
  5
3D6
  6
CONTINUOUS
 62
4
 10
0.4886
 20
14.4911
 30
0.0
 11
0.4681
 21
14.554
 31
0.0
  0
LINE
  8
0
  5
3D8
  6
CONTINUOUS
 62
4
 10
-3.2317
 20
26.0974
 30
0.0
 11
-3.2112
 21
26.0345
 31
0.0
  0
LINE
  8
0
  5
3DA
  6
CONTINUOUS
 62
4
 10
0.7346
 20
14.0304
 30
0.0
 11
0.7551
 21
13.9676
 31
0.0
  0
LINE
  8
0
  5
3DC
  6
CONTINUOUS
 62
4
 10
-2.5345
 20
26.4952
 30
0.0
 11
-2.555
 21
26.5581
 31
0.0
  0
LINE
  8
0
  5
3DE
  6
CONTINUOUS
 62
4
 10
1.4318
 20
14.4283
 30
0.0
 11
1.4113
 21
14.4911
 31
0.0
  0
LINE
  8
0
  5
3E0
  6
CONTINUOUS
 62
4
 10
-2.2885
 20
26.0345
 30
0.0
 11
-2.268
 21
25.9717
 31
0.0
  0
LINE
  8
0
  5
3E2
  6
CONTINUOUS
 62
4
 10
-1.7963
 20
26.1602
 30
0.0
 11
-1.7758
 21
26.0974
 31
0.0
  0
LINE
  8
0
  5
3E4
  6
CONTINUOUS
 62
4
 10
2.2315
 20
14.1351
 30
0.0
 11
2.252
 21
14.0723
 31
0.0
  0
LINE
  8
0
  5
3E6
  6
CONTINUOUS
 62
4
 10
-1.7348
 20
26.579
 30
0.0
 11
-1.7143
 21
26.5162
 31
0.0
  0
LINE
  8
0
  5
3E8
  6
CONTINUOUS
 62
4
 10
9.3513
 20
8.2549
 30
0.0
 11
10.0032
 21
10.1125
 31
0.0
  0
LINE
  8
0
  5
3EA
  6
CONTINUOUS
 62
4
 10
-4.4495
 20
-18.159
 30
0.0
 11
-4.4905
 21
-18.2427
 31
0.0
  0
LINE
  8
0
  5
3EC
  6
CONTINUOUS
 62
4
 10
-3.4857
 20
-18.159
 30
0.0
 11
-3.5267
 21
-18.2427
 31
0.0
  0
LINE
  8
0
  5
3EE
  6
CONTINUOUS
 62
4
 10
-3.7523
 20
-18.85
 30
0.0
 11
-3.7113
 21
-18.7663
 31
0.0
  0
LINE
  8
0
  5
3F0
  6
CONTINUOUS
 62
4
 10
19.8063
 20
26.6128
 30
0.0
 11
19.7646
 21
26.5348
 31
0.0
  0
LINE
  8
0
  5
3F2
  6
CONTINUOUS
 62
4
 10
19.5144
 20
25.9693
 30
0.0
 11
19.5561
 21
26.0473
 31
0.0
  0
LINE
  8
0
  5
3F4
  6
CONTINUOUS
 62
4
 10
20.3901
 20
25.9693
 30
0.0
 11
20.4318
 21
26.0473
 31
0.0
  0
LINE
  8
0
  5
3F6
  6
CONTINUOUS
 62
4
 10
-10.0952
 20
-6.7543
 30
0.0
 11
-10.0337
 21
-6.7124
 31
0.0
  0
LINE
  8
0
  5
3F8
  6
CONTINUOUS
 62
4
 10
-9.234
 20
-6.7752
 30
0.0
 11
-9.1724
 21
-6.7334
 31
0.0
  0
LINE
  8
0
  5
3FA
  6
CONTINUOUS
 62
4
 10
-9.7671
 20
-7.4035
 30
0.0
 11
-9.8286
 21
-7.4454
 31
0.0
  0
LINE
  8
0
  5
3FC
  6
CONTINUOUS
 62
4
 10
-8.8444
 20
-7.3825
 30
0.0
 11
-8.9059
 21
-7.4244
 31
0.0
  0
LINE
  8
0
  5
3FE
  6
CONTINUOUS
 62
4
 10
-10.0542
 20
-6.6077
 30
0.0
 11
-10.1567
 21
-6.6705
 31
0.0
  0
LINE
  8
0
  5
400
  6
CONTINUOUS
 62
4
 10
-9.8081
 20
-7.5501
 30
0.0
 11
-9.7056
 21
-7.4873
 31
0.0
  0
LINE
  8
0
  5
402
  6
CONTINUOUS
 62
4
 10
28.383
 20
8.5185
 30
0.0
 11
22.4301
 21
6.8663
 31
0.0
  0
LINE
  8
0
  5
404
  6
CONTINUOUS
 62
4
 10
22.861
 20
6.2989
 30
0.0
 11
22.943
 21
6.3199
 31
0.0
  0
LINE
  8
0
  5
406
  6
CONTINUOUS
 62
4
 10
22.2048
 20
5.5869
 30
0.0
 11
22.1023
 21
5.566
 31
0.0
  0
LINE
  8
0
  5
408
  6
CONTINUOUS
 62
4
 10
21.2411
 20
5.4613
 30
0.0
 11
21.3436
 21
5.4822
 31
0.0
  0
LINE
  8
0
  5
40A
  6
CONTINUOUS
 62
4
 10
21.2411
 20
5.8173
 30
0.0
 11
21.3436
 21
5.8382
 31
0.0
  0
LINE
  8
0
  5
40C
  6
CONTINUOUS
 62
4
 10
22.943
 20
6.4455
 30
0.0
 11
22.8405
 21
6.4246
 31
0.0
  0
LINE
  8
0
  5
40E
  6
CONTINUOUS
 62
4
 10
21.9998
 20
6.3199
 30
0.0
 11
22.1023
 21
6.3408
 31
0.0
  0
LINE
  8
0
  5
410
  6
CONTINUOUS
 62
4
 10
21.1386
 20
6.4455
 30
0.0
 11
21.036
 21
6.4246
 31
0.0
  0
LINE
  8
0
  5
412
  6
CONTINUOUS
 62
4
 10
22.1023
 20
5.4613
 30
0.0
 11
22.2254
 21
5.4822
 31
0.0
  0
LINE
  8
0
  5
414
  6
CONTINUOUS
 62
4
 10
22.1023
 20
6.4455
 30
0.0
 11
21.9793
 21
6.4246
 31
0.0
  0
LINE
  8
0
  5
416
  6
CONTINUOUS
 62
4
 10
12.7792
 20
1.9062
 30
0.0
 11
12.3896
 21
1.9062
 31
0.0
  0
LINE
  8
0
  5
418
  6
CONTINUOUS
 62
4
 10
12.3896
 20
2.2203
 30
0.0
 11
12.7792
 21
2.2203
 31
0.0
  0
LINE
  8
0
  5
41A
  6
CONTINUOUS
 62
4
 10
14.4196
 20
2.2203
 30
0.0
 11
14.5017
 21
2.2203
 31
0.0
  0
LINE
  8
0
  5
41C
  6
CONTINUOUS
 62
4
 10
14.5017
 20
2.325
 30
0.0
 11
14.4196
 21
2.325
 31
0.0
  0
LINE
  8
0
  5
41E
  6
CONTINUOUS
 62
4
 10
12.7587
 20
2.325
 30
0.0
 11
12.2666
 21
2.325
 31
0.0
  0
LINE
  8
0
  5
420
  6
CONTINUOUS
 62
4
 10
15.5044
 20
2.7098
 30
0.0
 11
15.8587
 21
2.7098
 31
0.0
  0
LINE
  8
0
  5
422
  6
CONTINUOUS
 62
4
 10
32.067
 20
3.0821
 30
0.0
 11
25.0985
 21
3.0821
 31
0.0
  0
LINE
  8
0
  5
424
  6
CONTINUOUS
 62
4
 10
-4.0232
 20
3.0815
 30
0.0
 11
2.9453
 21
2.8077
 31
0.0
  0
LINE
  8
0
  5
426
  6
CONTINUOUS
 62
4
 10
15.4666
 20
2.7492
 30
0.0
 11
2.9623
 21
3.2405
 31
0.0
  0
LINE
  8
0
  5
428
  6
CONTINUOUS
 62
4
 10
15.4805
 20
3.1032
 30
0.0
 11
2.9762
 21
3.5945
 31
0.0
  0
LINE
  8
0
  5
42A
  6
CONTINUOUS
 62
4
 10
13.4354
 20
1.3617
 30
0.0
 11
13.5584
 21
1.3408
 31
0.0
  0
LINE
  8
0
  5
42C
  6
CONTINUOUS
 62
4
 10
13.6815
 20
2.3041
 30
0.0
 11
13.5584
 21
2.325
 31
0.0
  0
LINE
  8
0
  5
42E
  6
CONTINUOUS
 62
4
 10
13.5584
 20
1.4455
 30
0.0
 11
13.4559
 21
1.4664
 31
0.0
  0
LINE
  8
0
  5
430
  6
CONTINUOUS
 62
4
 10
14.2966
 20
1.3617
 30
0.0
 11
14.3991
 21
1.3408
 31
0.0
  0
LINE
  8
0
  5
432
  6
CONTINUOUS
 62
4
 10
12.8612
 20
2.3041
 30
0.0
 11
12.7587
 21
2.325
 31
0.0
  0
LINE
  8
0
  5
434
  6
CONTINUOUS
 62
4
 10
13.5584
 20
2.2203
 30
0.0
 11
13.6609
 21
2.1994
 31
0.0
  0
LINE
  8
0
  5
436
  6
CONTINUOUS
 62
4
 10
14.6042
 20
2.3041
 30
0.0
 11
14.5017
 21
2.325
 31
0.0
  0
LINE
  8
0
  5
438
  6
CONTINUOUS
 62
4
 10
14.4196
 20
1.4455
 30
0.0
 11
14.3376
 21
1.4664
 31
0.0
  0
LINE
  8
0
  5
43A
  6
CONTINUOUS
 62
4
 10
14.5017
 20
1.8015
 30
0.0
 11
14.5837
 21
1.7806
 31
0.0
  0
LINE
  8
0
  5
43C
  6
CONTINUOUS
 62
4
 10
14.4196
 20
1.8853
 30
0.0
 11
14.3376
 21
1.9062
 31
0.0
  0
LINE
  8
0
  5
43E
  6
CONTINUOUS
 62
4
 10
14.5017
 20
2.2203
 30
0.0
 11
14.5837
 21
2.1994
 31
0.0
  0
LINE
  8
0
  5
440
  6
CONTINUOUS
 62
4
 10
12.7792
 20
2.2203
 30
0.0
 11
12.8407
 21
2.1994
 31
0.0
  0
LINE
  8
0
  5
442
  6
CONTINUOUS
 62
4
 10
0.4681
 20
14.554
 30
0.0
 11
0.4066
 21
14.6377
 31
0.0
  0
LINE
  8
0
  5
444
  6
CONTINUOUS
 62
4
 10
0.386
 20
14.1142
 30
0.0
 11
0.4271
 21
14.0514
 31
0.0
  0
LINE
  8
0
  5
446
  6
CONTINUOUS
 62
4
 10
0.9192
 20
13.9048
 30
0.0
 11
0.8372
 21
14.0304
 31
0.0
  0
LINE
  8
0
  5
448
  6
CONTINUOUS
 62
4
 10
1.2473
 20
14.554
 30
0.0
 11
1.3293
 21
14.4283
 31
0.0
  0
LINE
  8
0
  5
44A
  6
CONTINUOUS
 62
4
 10
-4.2057
 20
23.364
 30
0.0
 11
-4.1439
 21
23.2648
 31
0.0
  0
LINE
  8
0
  5
44C
  6
CONTINUOUS
 62
4
 10
-3.4638
 20
23.503
 30
0.0
 11
-3.5051
 21
23.5824
 31
0.0
  0
LINE
  8
0
  5
44E
  6
CONTINUOUS
 62
4
 10
-3.6699
 20
23.9397
 30
0.0
 11
-3.6493
 21
23.9
 31
0.0
  0
LINE
  8
0
  5
450
  6
CONTINUOUS
 62
4
 10
-3.2578
 20
23.4037
 30
0.0
 11
-3.2166
 21
23.3243
 31
0.0
  0
LINE
  8
0
  5
452
  6
CONTINUOUS
 62
4
 10
-2.5983
 20
23.9
 30
0.0
 11
-2.6396
 21
23.9794
 31
0.0
  0
LINE
  8
0
  5
454
  6
CONTINUOUS
 62
4
 10
9.2712
 20
0.5179
 30
0.0
 11
8.8481
 21
1.3758
 31
0.0
  0
LINE
  8
0
  5
456
  6
CONTINUOUS
 62
4
 10
1.6164
 20
13.9885
 30
0.0
 11
1.6574
 21
13.9048
 31
0.0
  0
LINE
  8
0
  5
458
  6
CONTINUOUS
 62
4
 10
1.4113
 20
14.4911
 30
0.0
 11
1.3703
 21
14.5749
 31
0.0
  0
LINE
  8
0
  5
45A
  6
CONTINUOUS
 62
4
 10
1.7804
 20
13.9048
 30
0.0
 11
1.7394
 21
13.9885
 31
0.0
  0
LINE
  8
0
  5
45C
  6
CONTINUOUS
 62
4
 10
10.941
 20
-4.2616
 30
0.0
 11
10.9
 21
-4.1779
 31
0.0
  0
LINE
  8
0
  5
45E
  6
CONTINUOUS
 62
4
 10
-3.2112
 20
26.0345
 30
0.0
 11
-3.1702
 21
25.9508
 31
0.0
  0
LINE
  8
0
  5
460
  6
CONTINUOUS
 62
4
 10
-2.555
 20
26.5581
 30
0.0
 11
-2.596
 21
26.6418
 31
0.0
  0
LINE
  8
0
  5
462
  6
CONTINUOUS
 62
4
 10
2.3546
 20
14.0933
 30
0.0
 11
2.3135
 21
14.198
 31
0.0
  0
LINE
  8
0
  5
464
  6
CONTINUOUS
 62
4
 10
11.1461
 20
-4.7852
 30
0.0
 11
11.1666
 21
-4.848
 31
0.0
  0
LINE
  8
0
  5
466
  6
CONTINUOUS
 62
4
 10
11.2896
 20
-4.848
 30
0.0
 11
11.2691
 21
-4.7852
 31
0.0
  0
LINE
  8
0
  5
468
  6
CONTINUOUS
 62
4
 10
10.2644
 20
-4.7223
 30
0.0
 11
10.2849
 21
-4.7852
 31
0.0
  0
LINE
  8
0
  5
46A
  6
CONTINUOUS
 62
4
 10
10.9615
 20
-4.3244
 30
0.0
 11
10.941
 21
-4.2616
 31
0.0
  0
LINE
  8
0
  5
46C
  6
CONTINUOUS
 62
4
 10
10.2439
 20
-4.6176
 30
0.0
 11
10.2644
 21
-4.7223
 31
0.0
  0
LINE
  8
0
  5
46E
  6
CONTINUOUS
 62
4
 10
9.8338
 20
-4.0313
 30
0.0
 11
9.8338
 21
-5.0155
 31
0.0
  0
LINE
  8
0
  5
470
  6
CONTINUOUS
 62
4
 10
9.9568
 20
-4.848
 30
0.0
 11
9.9568
 21
-4.0313
 31
0.0
  0
LINE
  8
0
  5
472
  6
CONTINUOUS
 62
4
 10
10.0798
 20
-4.8689
 30
0.0
 11
10.0798
 21
-4.7014
 31
0.0
  0
LINE
  8
0
  5
474
  6
CONTINUOUS
 62
4
 10
10.2439
 20
-4.4291
 30
0.0
 11
10.2439
 21
-4.6176
 31
0.0
  0
LINE
  8
0
  5
476
  6
CONTINUOUS
 62
4
 10
10.3464
 20
-4.5967
 30
0.0
 11
10.3464
 21
-4.4501
 31
0.0
  0
LINE
  8
0
  5
478
  6
CONTINUOUS
 62
4
 10
10.8795
 20
-4.4501
 30
0.0
 11
10.8795
 21
-4.5967
 31
0.0
  0
LINE
  8
0
  5
47A
  6
CONTINUOUS
 62
4
 10
8.4717
 20
-5.385
 30
0.0
 11
8.4593
 21
-5.7391
 31
0.0
  0
LINE
  8
0
  5
47C
  6
CONTINUOUS
 62
4
 10
18.9722
 20
26.5153
 30
0.0
 11
18.9931
 21
26.5738
 31
0.0
  0
LINE
  8
0
  5
47E
  6
CONTINUOUS
 62
4
 10
21.2659
 20
26.4958
 30
0.0
 11
21.2242
 21
26.4178
 31
0.0
  0
LINE
  8
0
  5
480
  6
CONTINUOUS
 62
4
 10
21.2868
 20
26.0473
 30
0.0
 11
21.2659
 21
26.0083
 31
0.0
  0
LINE
  8
0
  5
482
  6
CONTINUOUS
 62
4
 10
-4.3675
 20
-18.2637
 30
0.0
 11
-4.3265
 21
-18.2008
 31
0.0
  0
LINE
  8
0
  5
484
  6
CONTINUOUS
 62
4
 10
-3.8343
 20
-18.7453
 30
0.0
 11
-3.8753
 21
-18.8081
 31
0.0
  0
LINE
  8
0
  5
486
  6
CONTINUOUS
 62
4
 10
-3.4037
 20
-18.2637
 30
0.0
 11
-3.3627
 21
-18.2008
 31
0.0
  0
LINE
  8
0
  5
488
  6
CONTINUOUS
 62
4
 10
-4.5053
 20
-13.5589
 30
0.0
 11
-6.0777
 21
-15.3014
 31
0.0
  0
LINE
  8
0
  5
48A
  6
CONTINUOUS
 62
4
 10
-9.193
 20
-6.6077
 30
0.0
 11
-9.275
 21
-6.6496
 31
0.0
  0
LINE
  8
0
  5
48C
  6
CONTINUOUS
 62
4
 10
-8.8854
 20
-7.5501
 30
0.0
 11
-8.8034
 21
-7.5082
 31
0.0
  0
LINE
  8
0
  5
48E
  6
CONTINUOUS
 62
4
 10
21.0566
 20
6.3199
 30
0.0
 11
21.1181
 21
6.3408
 31
0.0
  0
LINE
  8
0
  5
490
  6
CONTINUOUS
 62
4
 10
21.3231
 20
5.9429
 30
0.0
 11
21.2616
 21
5.922
 31
0.0
  0
LINE
  8
0
  5
492
  6
CONTINUOUS
 62
4
 10
21.3231
 20
5.5869
 30
0.0
 11
21.2616
 21
5.566
 31
0.0
  0
LINE
  8
0
  5
494
  6
CONTINUOUS
 62
4
 10
21.1591
 20
5.4613
 30
0.0
 11
21.2411
 21
5.4613
 31
0.0
  0
LINE
  8
0
  5
496
  6
CONTINUOUS
 62
4
 10
22.9635
 20
5.4613
 30
0.0
 11
23.0661
 21
5.4613
 31
0.0
  0
LINE
  8
0
  5
498
  6
CONTINUOUS
 62
4
 10
21.2616
 20
5.566
 30
0.0
 11
21.1386
 21
5.566
 31
0.0
  0
LINE
  8
0
  5
49A
  6
CONTINUOUS
 62
4
 10
23.0661
 20
5.5869
 30
0.0
 11
22.943
 21
5.5869
 31
0.0
  0
LINE
  8
0
  5
49C
  6
CONTINUOUS
 62
4
 10
22.82
 20
5.6916
 30
0.0
 11
22.697
 21
5.6916
 31
0.0
  0
LINE
  8
0
  5
49E
  6
CONTINUOUS
 62
4
 10
20.9745
 20
5.6916
 30
0.0
 11
20.872
 21
5.6916
 31
0.0
  0
LINE
  8
0
  5
4A0
  6
CONTINUOUS
 62
4
 10
21.1386
 20
5.8173
 30
0.0
 11
21.2411
 21
5.8173
 31
0.0
  0
LINE
  8
0
  5
4A2
  6
CONTINUOUS
 62
4
 10
22.943
 20
5.8801
 30
0.0
 11
23.0661
 21
5.8801
 31
0.0
  0
LINE
  8
0
  5
4A4
  6
CONTINUOUS
 62
4
 10
21.2616
 20
5.922
 30
0.0
 11
21.1181
 21
5.922
 31
0.0
  0
LINE
  8
0
  5
4A6
  6
CONTINUOUS
 62
4
 10
23.0661
 20
6.0057
 30
0.0
 11
22.943
 21
6.0057
 31
0.0
  0
LINE
  8
0
  5
4A8
  6
CONTINUOUS
 62
4
 10
23.2711
 20
6.1733
 30
0.0
 11
23.3942
 21
6.1733
 31
0.0
  0
LINE
  8
0
  5
4AA
  6
CONTINUOUS
 62
4
 10
22.943
 20
6.3199
 30
0.0
 11
23.1071
 21
6.3199
 31
0.0
  0
LINE
  8
0
  5
4AC
  6
CONTINUOUS
 62
4
 10
21.1181
 20
6.3408
 30
0.0
 11
21.2616
 21
6.3408
 31
0.0
  0
LINE
  8
0
  5
4AE
  6
CONTINUOUS
 62
4
 10
0.8557
 20
6.0853
 30
0.0
 11
-6.2985
 21
7.4869
 31
0.0
  0
LINE
  8
0
  5
4B0
  6
CONTINUOUS
 62
4
 10
14.3376
 20
1.4664
 30
0.0
 11
14.2556
 21
1.5083
 31
0.0
  0
LINE
  8
0
  5
4B2
  6
CONTINUOUS
 62
4
 10
14.2146
 20
1.8643
 30
0.0
 11
14.2556
 21
1.8434
 31
0.0
  0
LINE
  8
0
  5
4B4
  6
CONTINUOUS
 62
4
 10
14.5837
 20
1.7806
 30
0.0
 11
14.6657
 21
1.7387
 31
0.0
  0
LINE
  8
0
  5
4B6
  6
CONTINUOUS
 62
4
 10
14.7067
 20
1.8224
 30
0.0
 11
14.6657
 21
1.8434
 31
0.0
  0
LINE
  8
0
  5
4B8
  6
CONTINUOUS
 62
4
 10
13.3329
 20
1.4246
 30
0.0
 11
13.4354
 21
1.3617
 31
0.0
  0
LINE
  8
0
  5
4BA
  6
CONTINUOUS
 62
4
 10
14.1941
 20
1.4246
 30
0.0
 11
14.2966
 21
1.3617
 31
0.0
  0
LINE
  8
0
  5
4BC
  6
CONTINUOUS
 62
4
 10
13.784
 20
2.2413
 30
0.0
 11
13.6815
 21
2.3041
 31
0.0
  0
LINE
  8
0
  5
4BE
  6
CONTINUOUS
 62
4
 10
14.7067
 20
2.2413
 30
0.0
 11
14.6042
 21
2.3041
 31
0.0
  0
LINE
  8
0
  5
4C0
  6
CONTINUOUS
 62
4
 10
13.4559
 20
1.4664
 30
0.0
 11
13.3944
 21
1.5083
 31
0.0
  0
LINE
  8
0
  5
4C2
  6
CONTINUOUS
 62
4
 10
13.6609
 20
2.1994
 30
0.0
 11
13.7225
 21
2.1575
 31
0.0
  0
LINE
  8
0
  5
4C4
  6
CONTINUOUS
 62
4
 10
12.9433
 20
2.2413
 30
0.0
 11
12.8612
 21
2.3041
 31
0.0
  0
LINE
  8
0
  5
4C6
  6
CONTINUOUS
 62
4
 10
14.3376
 20
1.9062
 30
0.0
 11
14.2556
 21
1.969
 31
0.0
  0
LINE
  8
0
  5
4C8
  6
CONTINUOUS
 62
4
 10
14.7887
 20
1.7596
 30
0.0
 11
14.7067
 21
1.8224
 31
0.0
  0
LINE
  8
0
  5
4CA
  6
CONTINUOUS
 62
4
 10
14.5837
 20
2.1994
 30
0.0
 11
14.6657
 21
2.1366
 31
0.0
  0
LINE
  8
0
  5
4CC
  6
CONTINUOUS
 62
4
 10
-0.0036
 20
13.8838
 30
0.0
 11
-0.0651
 21
13.9467
 31
0.0
  0
LINE
  8
0
  5
4CE
  6
CONTINUOUS
 62
4
 10
-0.1266
 20
14.3236
 30
0.0
 11
-0.0446
 21
14.2398
 31
0.0
  0
LINE
  8
0
  5
4D0
  6
CONTINUOUS
 62
4
 10
0.5091
 20
14.1561
 30
0.0
 11
0.4271
 21
14.2398
 31
0.0
  0
LINE
  8
0
  5
4D2
  6
CONTINUOUS
 62
4
 10
0.7962
 20
13.8838
 30
0.0
 11
0.8577
 21
13.821
 31
0.0
  0
LINE
  8
0
  5
4D4
  6
CONTINUOUS
 62
4
 10
0.304
 20
14.5749
 30
0.0
 11
0.345
 21
14.533
 31
0.0
  0
LINE
  8
0
  5
4D6
  6
CONTINUOUS
 62
4
 10
13.2713
 20
1.4874
 30
0.0
 11
13.3329
 21
1.4246
 31
0.0
  0
LINE
  8
0
  5
4D8
  6
CONTINUOUS
 62
4
 10
12.8407
 20
2.1994
 30
0.0
 11
12.8817
 21
2.1575
 31
0.0
  0
LINE
  8
0
  5
4DA
  6
CONTINUOUS
 62
4
 10
14.1326
 20
1.4874
 30
0.0
 11
14.1941
 21
1.4246
 31
0.0
  0
LINE
  8
0
  5
4DC
  6
CONTINUOUS
 62
4
 10
1.3703
 20
14.5749
 30
0.0
 11
1.3088
 21
14.6377
 31
0.0
  0
LINE
  8
0
  5
4DE
  6
CONTINUOUS
 62
4
 10
1.6574
 20
13.9048
 30
0.0
 11
1.7189
 21
13.821
 31
0.0
  0
LINE
  8
0
  5
4E0
  6
CONTINUOUS
 62
4
 10
2.3135
 20
14.198
 30
0.0
 11
2.252
 21
14.2817
 31
0.0
  0
LINE
  8
0
  5
4E2
  6
CONTINUOUS
 62
4
 10
-3.6287
 20
23.5427
 30
0.0
 11
-3.5875
 21
23.4831
 31
0.0
  0
LINE
  8
0
  5
4E4
  6
CONTINUOUS
 62
4
 10
-3.0929
 20
23.3442
 30
0.0
 11
-3.1753
 21
23.4633
 31
0.0
  0
LINE
  8
0
  5
4E6
  6
CONTINUOUS
 62
4
 10
-2.7632
 20
23.9596
 30
0.0
 11
-2.6808
 21
23.8405
 31
0.0
  0
LINE
  8
0
  5
4E8
  6
CONTINUOUS
 62
4
 10
2.1905
 20
14.198
 30
0.0
 11
2.2315
 21
14.1351
 31
0.0
  0
LINE
  8
0
  5
4EA
  6
CONTINUOUS
 62
4
 10
-3.0472
 20
25.9717
 30
0.0
 11
-3.1292
 21
26.0974
 31
0.0
  0
LINE
  8
0
  5
4EC
  6
CONTINUOUS
 62
4
 10
-2.1449
 20
25.9926
 30
0.0
 11
-2.1654
 21
26.0345
 31
0.0
  0
LINE
  8
0
  5
4EE
  6
CONTINUOUS
 62
4
 10
-2.35
 20
26.4534
 30
0.0
 11
-2.309
 21
26.3696
 31
0.0
  0
LINE
  8
0
  5
4F0
  6
CONTINUOUS
 62
4
 10
10.982
 20
-4.4291
 30
0.0
 11
10.9615
 21
-4.3244
 31
0.0
  0
LINE
  8
0
  5
4F2
  6
CONTINUOUS
 62
4
 10
10.3669
 20
-4.7223
 30
0.0
 11
10.3464
 21
-4.5967
 31
0.0
  0
LINE
  8
0
  5
4F4
  6
CONTINUOUS
 62
4
 10
10.859
 20
-4.3244
 30
0.0
 11
10.8795
 21
-4.4501
 31
0.0
  0
LINE
  8
0
  5
4F6
  6
CONTINUOUS
 62
4
 10
10.982
 20
-4.6176
 30
0.0
 11
10.982
 21
-4.4291
 31
0.0
  0
LINE
  8
0
  5
4F8
  6
CONTINUOUS
 62
4
 10
11.1461
 20
-4.7014
 30
0.0
 11
11.1461
 21
-4.7852
 31
0.0
  0
LINE
  8
0
  5
4FA
  6
CONTINUOUS
 62
4
 10
11.2691
 20
-4.7852
 30
0.0
 11
11.2691
 21
-4.7223
 31
0.0
  0
LINE
  8
0
  5
4FC
  6
CONTINUOUS
 62
4
 10
11.7818
 20
-4.0313
 30
0.0
 11
11.7818
 21
-4.471
 31
0.0
  0
LINE
  8
0
  5
4FE
  6
CONTINUOUS
 62
4
 10
11.7818
 20
-4.5967
 30
0.0
 11
11.7818
 21
-4.9108
 31
0.0
  0
LINE
  8
0
  5
500
  6
CONTINUOUS
 62
4
 10
11.9048
 20
-5.0155
 30
0.0
 11
11.9048
 21
-4.0313
 31
0.0
  0
LINE
  8
0
  5
502
  6
CONTINUOUS
 62
4
 10
12.2666
 20
2.325
 30
0.0
 11
12.2666
 21
1.3408
 31
0.0
  0
LINE
  8
0
  5
504
  6
CONTINUOUS
 62
4
 10
12.3896
 20
1.3408
 30
0.0
 11
12.3896
 21
1.7806
 31
0.0
  0
LINE
  8
0
  5
506
  6
CONTINUOUS
 62
4
 10
12.3896
 20
1.9062
 30
0.0
 11
12.3896
 21
2.2203
 31
0.0
  0
LINE
  8
0
  5
508
  6
CONTINUOUS
 62
4
 10
12.9023
 20
2.0947
 30
0.0
 11
12.9023
 21
2.0319
 31
0.0
  0
LINE
  8
0
  5
50A
  6
CONTINUOUS
 62
4
 10
13.0253
 20
2.0109
 30
0.0
 11
13.0253
 21
2.0947
 31
0.0
  0
LINE
  8
0
  5
50C
  6
CONTINUOUS
 62
4
 10
10.3464
 20
-4.4501
 30
0.0
 11
10.3669
 21
-4.3244
 31
0.0
  0
LINE
  8
0
  5
50E
  6
CONTINUOUS
 62
4
 10
10.8795
 20
-4.5967
 30
0.0
 11
10.859
 21
-4.7223
 31
0.0
  0
LINE
  8
0
  5
510
  6
CONTINUOUS
 62
4
 10
10.2644
 20
-4.3244
 30
0.0
 11
10.2439
 21
-4.4291
 31
0.0
  0
LINE
  8
0
  5
512
  6
CONTINUOUS
 62
4
 10
10.9615
 20
-4.7223
 30
0.0
 11
10.982
 21
-4.6176
 31
0.0
  0
LINE
  8
0
  5
514
  6
CONTINUOUS
 62
4
 10
18.8679
 20
26.6128
 30
0.0
 11
18.8471
 21
26.5348
 31
0.0
  0
LINE
  8
0
  5
516
  6
CONTINUOUS
 62
4
 10
10.2849
 20
-4.2616
 30
0.0
 11
10.2644
 21
-4.3244
 31
0.0
  0
LINE
  8
0
  5
518
  6
CONTINUOUS
 62
4
 10
19.7646
 20
26.5348
 30
0.0
 11
19.7437
 21
26.4763
 31
0.0
  0
LINE
  8
0
  5
51A
  6
CONTINUOUS
 62
4
 10
20.4318
 20
26.0473
 30
0.0
 11
20.4527
 21
26.1058
 31
0.0
  0
LINE
  8
0
  5
51C
  6
CONTINUOUS
 62
4
 10
12.8817
 20
1.969
 30
0.0
 11
12.8407
 21
1.9272
 31
0.0
  0
LINE
  8
0
  5
51E
  6
CONTINUOUS
 62
4
 10
13.3329
 20
2.2413
 30
0.0
 11
13.2713
 21
2.1784
 31
0.0
  0
LINE
  8
0
  5
520
  6
CONTINUOUS
 62
4
 10
12.8612
 20
1.8015
 30
0.0
 11
12.9433
 21
1.8643
 31
0.0
  0
LINE
  8
0
  5
522
  6
CONTINUOUS
 62
4
 10
13.3944
 20
2.1575
 30
0.0
 11
13.4559
 21
2.1994
 31
0.0
  0
LINE
  8
0
  5
524
  6
CONTINUOUS
 62
4
 10
7.0455
 20
-1.7981
 30
0.0
 11
9.0037
 21
-0.4842
 31
0.0
  0
LINE
  8
0
  5
526
  6
CONTINUOUS
 62
4
 10
13.4354
 20
2.3041
 30
0.0
 11
13.3329
 21
2.2413
 31
0.0
  0
LINE
  8
0
  5
528
  6
CONTINUOUS
 62
4
 10
21.036
 20
6.4246
 30
0.0
 11
20.9335
 21
6.3617
 31
0.0
  0
LINE
  8
0
  5
52A
  6
CONTINUOUS
 62
4
 10
14.3171
 20
2.3041
 30
0.0
 11
14.2146
 21
2.2413
 31
0.0
  0
LINE
  8
0
  5
52C
  6
CONTINUOUS
 62
4
 10
22.8405
 20
6.4246
 30
0.0
 11
22.7585
 21
6.3827
 31
0.0
  0
LINE
  8
0
  5
52E
  6
CONTINUOUS
 62
4
 10
14.2556
 20
1.8434
 30
0.0
 11
14.2146
 21
1.8224
 31
0.0
  0
LINE
  8
0
  5
530
  6
CONTINUOUS
 62
4
 10
14.2556
 20
1.7387
 30
0.0
 11
14.3376
 21
1.7806
 31
0.0
  0
LINE
  8
0
  5
532
  6
CONTINUOUS
 62
4
 10
14.6657
 20
1.8434
 30
0.0
 11
14.7067
 21
1.8643
 31
0.0
  0
LINE
  8
0
  5
534
  6
CONTINUOUS
 62
4
 10
23.1276
 20
5.6079
 30
0.0
 11
23.0661
 21
5.5869
 31
0.0
  0
LINE
  8
0
  5
536
  6
CONTINUOUS
 62
4
 10
12.8407
 20
1.9272
 30
0.0
 11
12.7792
 21
1.9062
 31
0.0
  0
LINE
  8
0
  5
538
  6
CONTINUOUS
 62
4
 10
-9.394
 20
-6.4123
 30
0.0
 11
-7.0603
 21
-5.6881
 31
0.0
  0
LINE
  8
0
  5
53A
  6
CONTINUOUS
 62
4
 10
8.4639
 20
7.4869
 30
0.0
 11
1.3098
 21
6.0853
 31
0.0
  0
LINE
  8
0
  5
53C
  6
CONTINUOUS
 62
4
 10
23.1071
 20
6.4455
 30
0.0
 11
22.943
 21
6.4455
 31
0.0
  0
LINE
  8
0
  5
53E
  6
CONTINUOUS
 62
4
 10
21.2411
 20
6.4455
 30
0.0
 11
21.1386
 21
6.4455
 31
0.0
  0
LINE
  8
0
  5
540
  6
CONTINUOUS
 62
4
 10
21.9793
 20
5.4822
 30
0.0
 11
22.1023
 21
5.4613
 31
0.0
  0
LINE
  8
0
  5
542
  6
CONTINUOUS
 62
4
 10
21.0566
 20
5.4822
 30
0.0
 11
21.1591
 21
5.4613
 31
0.0
  0
LINE
  8
0
  5
544
  6
CONTINUOUS
 62
4
 10
22.1023
 20
5.566
 30
0.0
 11
21.9998
 21
5.5869
 31
0.0
  0
LINE
  8
0
  5
546
  6
CONTINUOUS
 62
4
 10
21.036
 20
5.8382
 30
0.0
 11
21.1386
 21
5.8173
 31
0.0
  0
LINE
  8
0
  5
548
  6
CONTINUOUS
 62
4
 10
22.861
 20
5.4822
 30
0.0
 11
22.9635
 21
5.4613
 31
0.0
  0
LINE
  8
0
  5
54A
  6
CONTINUOUS
 62
4
 10
13.0473
 20
7.2522
 30
0.0
 11
21.7349
 21
4.841
 31
0.0
  0
LINE
  8
0
  5
54C
  6
CONTINUOUS
 62
4
 10
-0.1266
 20
13.821
 30
0.0
 11
-0.0241
 21
13.7582
 31
0.0
  0
LINE
  8
0
  5
54E
  6
CONTINUOUS
 62
4
 10
0.8577
 20
13.821
 30
0.0
 11
0.9602
 21
13.7582
 31
0.0
  0
LINE
  8
0
  5
550
  6
CONTINUOUS
 62
4
 10
0.058
 20
14.3236
 30
0.0
 11
-0.0036
 21
14.3655
 31
0.0
  0
LINE
  8
0
  5
552
  6
CONTINUOUS
 62
4
 10
0.3245
 20
14.1561
 30
0.0
 11
0.386
 21
14.1142
 31
0.0
  0
LINE
  8
0
  5
554
  6
CONTINUOUS
 62
4
 10
0.9807
 20
13.8629
 30
0.0
 11
0.9192
 21
13.9048
 31
0.0
  0
LINE
  8
0
  5
556
  6
CONTINUOUS
 62
4
 10
1.8419
 20
13.8629
 30
0.0
 11
1.7804
 21
13.9048
 31
0.0
  0
LINE
  8
0
  5
558
  6
CONTINUOUS
 62
4
 10
0.4066
 20
14.6377
 30
0.0
 11
0.3245
 21
14.7006
 31
0.0
  0
LINE
  8
0
  5
55A
  6
CONTINUOUS
 62
4
 10
13.8455
 20
2.1784
 30
0.0
 11
13.784
 21
2.2413
 31
0.0
  0
LINE
  8
0
  5
55C
  6
CONTINUOUS
 62
4
 10
14.1531
 20
1.9272
 30
0.0
 11
14.2146
 21
1.8643
 31
0.0
  0
LINE
  8
0
  5
55E
  6
CONTINUOUS
 62
4
 10
14.7682
 20
2.1784
 30
0.0
 11
14.7067
 21
2.2413
 31
0.0
  0
LINE
  8
0
  5
560
  6
CONTINUOUS
 62
4
 10
-3.5463
 20
23.9596
 30
0.0
 11
-3.6081
 21
24.039
 31
0.0
  0
LINE
  8
0
  5
562
  6
CONTINUOUS
 62
4
 10
13.0048
 20
2.1575
 30
0.0
 11
12.9433
 21
2.2413
 31
0.0
  0
LINE
  8
0
  5
564
  6
CONTINUOUS
 62
4
 10
14.2556
 20
1.5083
 30
0.0
 11
14.1941
 21
1.5921
 31
0.0
  0
LINE
  8
0
  5
566
  6
CONTINUOUS
 62
4
 10
14.6657
 20
1.7387
 30
0.0
 11
14.7272
 21
1.6549
 31
0.0
  0
LINE
  8
0
  5
568
  6
CONTINUOUS
 62
4
 10
-2.268
 20
25.9717
 30
0.0
 11
-2.2064
 21
25.8879
 31
0.0
  0
LINE
  8
0
  5
56A
  6
CONTINUOUS
 62
4
 10
-1.8153
 20
23.9596
 30
0.0
 11
-1.7741
 21
23.9
 31
0.0
  0
LINE
  8
0
  5
56C
  6
CONTINUOUS
 62
4
 10
15.2254
 20
1.0056
 30
0.0
 11
15.4229
 21
0.7114
 31
0.0
  0
LINE
  8
0
  5
56E
  6
CONTINUOUS
 62
4
 10
13.3944
 20
1.5083
 30
0.0
 11
13.3124
 21
1.634
 31
0.0
  0
LINE
  8
0
  5
570
  6
CONTINUOUS
 62
4
 10
-2.7191
 20
26.6209
 30
0.0
 11
-2.6371
 21
26.4952
 31
0.0
  0
LINE
  8
0
  5
572
  6
CONTINUOUS
 62
4
 10
-2.1859
 20
26.4115
 30
0.0
 11
-2.2269
 21
26.4743
 31
0.0
  0
LINE
  8
0
  5
574
  6
CONTINUOUS
 62
4
 10
13.7225
 20
2.1575
 30
0.0
 11
13.8045
 21
2.0319
 31
0.0
  0
LINE
  8
0
  5
576
  6
CONTINUOUS
 62
4
 10
14.2556
 20
1.969
 30
0.0
 11
14.2146
 21
2.0319
 31
0.0
  0
LINE
  8
0
  5
578
  6
CONTINUOUS
 62
4
 10
14.6657
 20
2.1366
 30
0.0
 11
14.7067
 21
2.0737
 31
0.0
  0
LINE
  8
0
  5
57A
  6
CONTINUOUS
 62
4
 10
-1.6118
 20
26.6
 30
0.0
 11
-1.6733
 21
26.7047
 31
0.0
  0
LINE
  8
0
  5
57C
  6
CONTINUOUS
 62
4
 10
13.2303
 20
1.5711
 30
0.0
 11
13.2713
 21
1.4874
 31
0.0
  0
LINE
  8
0
  5
57E
  6
CONTINUOUS
 62
4
 10
13.8865
 20
2.0947
 30
0.0
 11
13.8455
 21
2.1784
 31
0.0
  0
LINE
  8
0
  5
580
  6
CONTINUOUS
 62
4
 10
14.1121
 20
2.0109
 30
0.0
 11
14.1531
 21
1.9272
 31
0.0
  0
LINE
  8
0
  5
582
  6
CONTINUOUS
 62
4
 10
14.0916
 20
1.5921
 30
0.0
 11
14.1326
 21
1.4874
 31
0.0
  0
LINE
  8
0
  5
584
  6
CONTINUOUS
 62
4
 10
7.0742
 20
20.6708
 30
0.0
 11
6.1642
 21
23.0891
 31
0.0
  0
LINE
  8
0
  5
586
  6
CONTINUOUS
 62
4
 10
12.8817
 20
2.1575
 30
0.0
 11
12.9023
 21
2.0947
 31
0.0
  0
LINE
  8
0
  5
588
  6
CONTINUOUS
 62
4
 10
13.0253
 20
2.0947
 30
0.0
 11
13.0048
 21
2.1575
 31
0.0
  0
LINE
  8
0
  5
58A
  6
CONTINUOUS
 62
4
 10
13.2098
 20
1.634
 30
0.0
 11
13.2303
 21
1.5711
 31
0.0
  0
LINE
  8
0
  5
58C
  6
CONTINUOUS
 62
4
 10
13.907
 20
2.0319
 30
0.0
 11
13.8865
 21
2.0947
 31
0.0
  0
LINE
  8
0
  5
58E
  6
CONTINUOUS
 62
4
 10
13.1893
 20
1.7387
 30
0.0
 11
13.2098
 21
1.634
 31
0.0
  0
LINE
  8
0
  5
590
  6
CONTINUOUS
 62
4
 10
13.3124
 20
1.634
 30
0.0
 11
13.2919
 21
1.7596
 31
0.0
  0
LINE
  8
0
  5
592
  6
CONTINUOUS
 62
4
 10
13.1893
 20
1.9272
 30
0.0
 11
13.1893
 21
1.7387
 31
0.0
  0
LINE
  8
0
  5
594
  6
CONTINUOUS
 62
4
 10
13.2919
 20
1.7596
 30
0.0
 11
13.2919
 21
1.9062
 31
0.0
  0
LINE
  8
0
  5
596
  6
CONTINUOUS
 62
4
 10
13.825
 20
1.9062
 30
0.0
 11
13.825
 21
1.7596
 31
0.0
  0
LINE
  8
0
  5
598
  6
CONTINUOUS
 62
4
 10
13.9275
 20
1.7387
 30
0.0
 11
13.9275
 21
1.9272
 31
0.0
  0
LINE
  8
0
  5
59A
  6
CONTINUOUS
 62
4
 10
14.0916
 20
1.6549
 30
0.0
 11
14.0916
 21
1.5921
 31
0.0
  0
LINE
  8
0
  5
59C
  6
CONTINUOUS
 62
4
 10
14.1121
 20
2.0737
 30
0.0
 11
14.1121
 21
2.0109
 31
0.0
  0
LINE
  8
0
  5
59E
  6
CONTINUOUS
 62
4
 10
14.1941
 20
1.5921
 30
0.0
 11
14.1941
 21
1.6549
 31
0.0
  0
LINE
  8
0
  5
5A0
  6
CONTINUOUS
 62
4
 10
14.2146
 20
2.0319
 30
0.0
 11
14.2146
 21
2.0737
 31
0.0
  0
LINE
  8
0
  5
5A2
  6
CONTINUOUS
 62
4
 10
14.7067
 20
2.0737
 30
0.0
 11
14.7067
 21
2.0319
 31
0.0
  0
LINE
  8
0
  5
5A4
  6
CONTINUOUS
 62
4
 10
14.7272
 20
1.6549
 30
0.0
 11
14.7272
 21
1.5921
 31
0.0
  0
LINE
  8
0
  5
5A6
  6
CONTINUOUS
 62
4
 10
14.8092
 20
2.0109
 30
0.0
 11
14.8092
 21
2.0737
 31
0.0
  0
LINE
  8
0
  5
5A8
  6
CONTINUOUS
 62
4
 10
14.8297
 20
1.5921
 30
0.0
 11
14.8297
 21
1.6549
 31
0.0
  0
LINE
  8
0
  5
5AA
  6
CONTINUOUS
 62
4
 10
13.2919
 20
1.9062
 30
0.0
 11
13.3124
 21
2.0319
 31
0.0
  0
LINE
  8
0
  5
5AC
  6
CONTINUOUS
 62
4
 10
13.825
 20
1.7596
 30
0.0
 11
13.8045
 21
1.634
 31
0.0
  0
LINE
  8
0
  5
5AE
  6
CONTINUOUS
 62
4
 10
13.2098
 20
2.0319
 30
0.0
 11
13.1893
 21
1.9272
 31
0.0
  0
LINE
  8
0
  5
5B0
  6
CONTINUOUS
 62
4
 10
13.907
 20
1.634
 30
0.0
 11
13.9275
 21
1.7387
 31
0.0
  0
LINE
  8
0
  5
5B2
  6
CONTINUOUS
 62
4
 10
19.7437
 20
26.4763
 30
0.0
 11
19.7229
 21
26.3788
 31
0.0
  0
LINE
  8
0
  5
5B4
  6
CONTINUOUS
 62
4
 10
20.6821
 20
26.6128
 30
0.0
 11
20.6612
 21
26.5348
 31
0.0
  0
LINE
  8
0
  5
5B6
  6
CONTINUOUS
 62
4
 10
21.3493
 20
26.4178
 30
0.0
 11
21.3702
 21
26.4958
 31
0.0
  0
LINE
  8
0
  5
5B8
  6
CONTINUOUS
 62
4
 10
12.9023
 20
2.0319
 30
0.0
 11
12.8817
 21
1.969
 31
0.0
  0
LINE
  8
0
  5
5BA
  6
CONTINUOUS
 62
4
 10
13.0048
 20
1.9481
 30
0.0
 11
13.0253
 21
2.0109
 31
0.0
  0
LINE
  8
0
  5
5BC
  6
CONTINUOUS
 62
4
 10
10.941
 20
-4.7852
 30
0.0
 11
10.9615
 21
-4.7223
 31
0.0
  0
LINE
  8
0
  5
5BE
  6
CONTINUOUS
 62
4
 10
13.2303
 20
2.0947
 30
0.0
 11
13.2098
 21
2.0319
 31
0.0
  0
LINE
  8
0
  5
5C0
  6
CONTINUOUS
 62
4
 10
11.1666
 20
-4.6386
 30
0.0
 11
11.1461
 21
-4.7014
 31
0.0
  0
LINE
  8
0
  5
5C2
  6
CONTINUOUS
 62
4
 10
11.2691
 20
-4.7223
 30
0.0
 11
11.2896
 21
-4.6595
 31
0.0
  0
LINE
  8
0
  5
5C4
  6
CONTINUOUS
 62
4
 10
13.8865
 20
1.5711
 30
0.0
 11
13.907
 21
1.634
 31
0.0
  0
LINE
  8
0
  5
5C6
  6
CONTINUOUS
 62
4
 10
21.3702
 20
25.9888
 30
0.0
 11
21.391
 21
26.0473
 31
0.0
  0
LINE
  8
0
  5
5C8
  6
CONTINUOUS
 62
4
 10
15.8154
 20
10.3125
 30
0.0
 11
15.4475
 21
9.287
 31
0.0
  0
LINE
  8
0
  5
5CA
  6
CONTINUOUS
 62
4
 10
14.1531
 20
2.1784
 30
0.0
 11
14.1121
 21
2.0737
 31
0.0
  0
LINE
  8
0
  5
5CC
  6
CONTINUOUS
 62
4
 10
14.1326
 20
1.7596
 30
0.0
 11
14.0916
 21
1.6549
 31
0.0
  0
LINE
  8
0
  5
5CE
  6
CONTINUOUS
 62
4
 10
14.7887
 20
1.4874
 30
0.0
 11
14.8297
 21
1.5921
 31
0.0
  0
LINE
  8
0
  5
5D0
  6
CONTINUOUS
 62
4
 10
13.2713
 20
2.1784
 30
0.0
 11
13.2303
 21
2.0947
 31
0.0
  0
LINE
  8
0
  5
5D2
  6
CONTINUOUS
 62
4
 10
10.3259
 20
-4.1779
 30
0.0
 11
10.2849
 21
-4.2616
 31
0.0
  0
LINE
  8
0
  5
5D4
  6
CONTINUOUS
 62
4
 10
13.8455
 20
1.4874
 30
0.0
 11
13.8865
 21
1.5711
 31
0.0
  0
LINE
  8
0
  5
5D6
  6
CONTINUOUS
 62
4
 10
10.9
 20
-4.8689
 30
0.0
 11
10.941
 21
-4.7852
 31
0.0
  0
LINE
  8
0
  5
5D8
  6
CONTINUOUS
 62
4
 10
14.7682
 20
1.9272
 30
0.0
 11
14.8092
 21
2.0109
 31
0.0
  0
LINE
  8
0
  5
5DA
  6
CONTINUOUS
 62
4
 10
13.3124
 20
2.0319
 30
0.0
 11
13.3944
 21
2.1575
 31
0.0
  0
LINE
  8
0
  5
5DC
  6
CONTINUOUS
 62
4
 10
13.8045
 20
1.634
 30
0.0
 11
13.7225
 21
1.5083
 31
0.0
  0
LINE
  8
0
  5
5DE
  6
CONTINUOUS
 62
4
 10
14.2146
 20
2.0737
 30
0.0
 11
14.2556
 21
2.1366
 31
0.0
  0
LINE
  8
0
  5
5E0
  6
CONTINUOUS
 62
4
 10
10.3669
 20
-4.3244
 30
0.0
 11
10.4489
 21
-4.1988
 31
0.0
  0
LINE
  8
0
  5
5E2
  6
CONTINUOUS
 62
4
 10
14.7067
 20
2.0319
 30
0.0
 11
14.6657
 21
1.969
 31
0.0
  0
LINE
  8
0
  5
5E4
  6
CONTINUOUS
 62
4
 10
10.859
 20
-4.7223
 30
0.0
 11
10.777
 21
-4.848
 31
0.0
  0
LINE
  8
0
  5
5E6
  6
CONTINUOUS
 62
4
 10
12.9433
 20
1.8643
 30
0.0
 11
13.0048
 21
1.9481
 31
0.0
  0
LINE
  8
0
  5
5E8
  6
CONTINUOUS
 62
4
 10
14.1941
 20
1.6549
 30
0.0
 11
14.2556
 21
1.7387
 31
0.0
  0
LINE
  8
0
  5
5EA
  6
CONTINUOUS
 62
4
 10
14.7272
 20
1.5921
 30
0.0
 11
14.6657
 21
1.5083
 31
0.0
  0
LINE
  8
0
  5
5EC
  6
CONTINUOUS
 62
4
 10
10.0798
 20
-4.7014
 30
0.0
 11
9.9568
 21
-4.848
 31
0.0
  0
LINE
  8
0
  5
5EE
  6
CONTINUOUS
 62
4
 10
9.9568
 20
-5.0155
 30
0.0
 11
10.0798
 21
-4.8689
 31
0.0
  0
LINE
  8
0
  5
5F0
  6
CONTINUOUS
 62
4
 10
14.2146
 20
2.2413
 30
0.0
 11
14.1531
 21
2.1784
 31
0.0
  0
LINE
  8
0
  5
5F2
  6
CONTINUOUS
 62
4
 10
13.784
 20
1.4246
 30
0.0
 11
13.8455
 21
1.4874
 31
0.0
  0
LINE
  8
0
  5
5F4
  6
CONTINUOUS
 62
4
 10
14.7067
 20
1.8643
 30
0.0
 11
14.7682
 21
1.9272
 31
0.0
  0
LINE
  8
0
  5
5F6
  6
CONTINUOUS
 62
4
 10
-4.3675
 20
-18.0752
 30
0.0
 11
-4.4495
 21
-18.159
 31
0.0
  0
LINE
  8
0
  5
5F8
  6
CONTINUOUS
 62
4
 10
14.7272
 20
1.4246
 30
0.0
 11
14.7887
 21
1.4874
 31
0.0
  0
LINE
  8
0
  5
5FA
  6
CONTINUOUS
 62
4
 10
-3.4037
 20
-18.0752
 30
0.0
 11
-3.4857
 21
-18.159
 31
0.0
  0
LINE
  8
0
  5
5FC
  6
CONTINUOUS
 62
4
 10
10.3874
 20
-4.115
 30
0.0
 11
10.3259
 21
-4.1779
 31
0.0
  0
LINE
  8
0
  5
5FE
  6
CONTINUOUS
 62
4
 10
14.2556
 20
2.1366
 30
0.0
 11
14.3376
 21
2.1994
 31
0.0
  0
LINE
  8
0
  5
600
  6
CONTINUOUS
 62
4
 10
14.2146
 20
1.8224
 30
0.0
 11
14.1326
 21
1.7596
 31
0.0
  0
LINE
  8
0
  5
602
  6
CONTINUOUS
 62
4
 10
14.6657
 20
1.969
 30
0.0
 11
14.5837
 21
1.9062
 31
0.0
  0
LINE
  8
0
  5
604
  6
CONTINUOUS
 62
4
 10
13.7225
 20
1.5083
 30
0.0
 11
13.6609
 21
1.4664
 31
0.0
  0
LINE
  8
0
  5
606
  6
CONTINUOUS
 62
4
 10
20.995
 20
6.278
 30
0.0
 11
21.0566
 21
6.3199
 31
0.0
  0
LINE
  8
0
  5
608
  6
CONTINUOUS
 62
4
 10
21.3846
 20
5.9848
 30
0.0
 11
21.3231
 21
5.9429
 31
0.0
  0
LINE
  8
0
  5
60A
  6
CONTINUOUS
 62
4
 10
21.9383
 20
6.278
 30
0.0
 11
21.9998
 21
6.3199
 31
0.0
  0
LINE
  8
0
  5
60C
  6
CONTINUOUS
 62
4
 10
21.3436
 20
5.8382
 30
0.0
 11
21.4667
 21
5.922
 31
0.0
  0
LINE
  8
0
  5
60E
  6
CONTINUOUS
 62
4
 10
21.3846
 20
5.6288
 30
0.0
 11
21.3231
 21
5.5869
 31
0.0
  0
LINE
  8
0
  5
610
  6
CONTINUOUS
 62
4
 10
22.7995
 20
6.257
 30
0.0
 11
22.861
 21
6.2989
 31
0.0
  0
LINE
  8
0
  5
612
  6
CONTINUOUS
 62
4
 10
22.2664
 20
5.6288
 30
0.0
 11
22.2048
 21
5.5869
 31
0.0
  0
LINE
  8
0
  5
614
  6
CONTINUOUS
 62
4
 10
23.1891
 20
5.6497
 30
0.0
 11
23.1276
 21
5.6079
 31
0.0
  0
LINE
  8
0
  5
616
  6
CONTINUOUS
 62
4
 10
15.2254
 20
1.0056
 30
0.0
 11
7.2531
 21
-4.3434
 31
0.0
  0
LINE
  8
0
  5
618
  6
CONTINUOUS
 62
4
 10
15.4228
 20
0.7114
 30
0.0
 11
7.4505
 21
-4.6376
 31
0.0
  0
LINE
  8
0
  5
61A
  6
CONTINUOUS
 62
4
 10
13.6815
 20
1.3617
 30
0.0
 11
13.784
 21
1.4246
 31
0.0
  0
LINE
  8
0
  5
61C
  6
CONTINUOUS
 62
4
 10
21.9793
 20
6.4246
 30
0.0
 11
21.8768
 21
6.3617
 31
0.0
  0
LINE
  8
0
  5
61E
  6
CONTINUOUS
 62
4
 10
21.3436
 20
5.4822
 30
0.0
 11
21.4462
 21
5.545
 31
0.0
  0
LINE
  8
0
  5
620
  6
CONTINUOUS
 62
4
 10
14.6247
 20
1.3617
 30
0.0
 11
14.7272
 21
1.4246
 31
0.0
  0
LINE
  8
0
  5
622
  6
CONTINUOUS
 62
4
 10
22.2254
 20
5.4822
 30
0.0
 11
22.3279
 21
5.545
 31
0.0
  0
LINE
  8
0
  5
624
  6
CONTINUOUS
 62
4
 10
19.3633
 20
1.9899
 30
0.0
 11
8.1045
 21
-4.2639
 31
0.0
  0
LINE
  8
0
  5
626
  6
CONTINUOUS
 62
4
 10
14.6657
 20
1.5083
 30
0.0
 11
14.5837
 21
1.4664
 31
0.0
  0
LINE
  8
0
  5
628
  6
CONTINUOUS
 62
4
 10
23.1481
 20
5.4822
 30
0.0
 11
23.2301
 21
5.5241
 31
0.0
  0
LINE
  8
0
  5
62A
  6
CONTINUOUS
 62
4
 10
-8.9059
 20
-7.4244
 30
0.0
 11
-8.9674
 21
-7.4454
 31
0.0
  0
LINE
  8
0
  5
62C
  6
CONTINUOUS
 62
4
 10
-4.6289
 20
-6.5824
 30
0.0
 11
-9.368
 21
-8.0531
 31
0.0
  0
LINE
  8
0
  5
62E
  6
CONTINUOUS
 62
4
 10
22.2254
 20
6.4246
 30
0.0
 11
22.1023
 21
6.4455
 31
0.0
  0
LINE
  8
0
  5
630
  6
CONTINUOUS
 62
4
 10
22.8405
 20
5.901
 30
0.0
 11
22.943
 21
5.8801
 31
0.0
  0
LINE
  8
0
  5
632
  6
CONTINUOUS
 62
4
 10
21.3436
 20
6.4246
 30
0.0
 11
21.2411
 21
6.4455
 31
0.0
  0
LINE
  8
0
  5
634
  6
CONTINUOUS
 62
4
 10
22.1023
 20
6.3408
 30
0.0
 11
22.2048
 21
6.3199
 31
0.0
  0
LINE
  8
0
  5
636
  6
CONTINUOUS
 62
4
 10
23.2096
 20
6.4246
 30
0.0
 11
23.1071
 21
6.4455
 31
0.0
  0
LINE
  8
0
  5
638
  6
CONTINUOUS
 62
4
 10
22.943
 20
6.0057
 30
0.0
 11
22.861
 21
6.0267
 31
0.0
  0
LINE
  8
0
  5
63A
  6
CONTINUOUS
 62
4
 10
23.1481
 20
5.9848
 30
0.0
 11
23.0661
 21
6.0057
 31
0.0
  0
LINE
  8
0
  5
63C
  6
CONTINUOUS
 62
4
 10
23.1071
 20
6.3199
 30
0.0
 11
23.1891
 21
6.2989
 31
0.0
  0
LINE
  8
0
  5
63E
  6
CONTINUOUS
 62
4
 10
21.7984
 20
6.8663
 30
0.0
 11
15.8454
 21
8.5185
 31
0.0
  0
LINE
  8
0
  5
640
  6
CONTINUOUS
 62
4
 10
1.4269
 20
13.3683
 30
0.0
 11
9.6181
 21
10.873
 31
0.0
  0
LINE
  8
0
  5
642
  6
CONTINUOUS
 62
4
 10
21.1386
 20
5.566
 30
0.0
 11
21.0771
 21
5.5869
 31
0.0
  0
LINE
  8
0
  5
644
  6
CONTINUOUS
 62
4
 10
21.1181
 20
5.922
 30
0.0
 11
21.0566
 21
5.9429
 31
0.0
  0
LINE
  8
0
  5
646
  6
CONTINUOUS
 62
4
 10
22.943
 20
5.5869
 30
0.0
 11
22.8815
 21
5.6079
 31
0.0
  0
LINE
  8
0
  5
648
  6
CONTINUOUS
 62
4
 10
21.2616
 20
6.3408
 30
0.0
 11
21.3231
 21
6.3199
 31
0.0
  0
LINE
  8
0
  5
64A
  6
CONTINUOUS
 62
4
 10
23.0661
 20
5.8801
 30
0.0
 11
23.1276
 21
5.8592
 31
0.0
  0
LINE
  8
0
  5
64C
  6
CONTINUOUS
 62
4
 10
-0.0446
 20
14.2398
 30
0.0
 11
0.0375
 21
14.198
 31
0.0
  0
LINE
  8
0
  5
64E
  6
CONTINUOUS
 62
4
 10
0.4271
 20
14.2398
 30
0.0
 11
0.345
 21
14.2817
 31
0.0
  0
LINE
  8
0
  5
650
  6
CONTINUOUS
 62
4
 10
1.7189
 20
13.821
 30
0.0
 11
1.8214
 21
13.7582
 31
0.0
  0
LINE
  8
0
  5
652
  6
CONTINUOUS
 62
4
 10
1.3088
 20
14.6377
 30
0.0
 11
1.2063
 21
14.7006
 31
0.0
  0
LINE
  8
0
  5
654
  6
CONTINUOUS
 62
4
 10
2.252
 20
14.2817
 30
0.0
 11
2.1495
 21
14.3445
 31
0.0
  0
LINE
  8
0
  5
656
  6
CONTINUOUS
 62
4
 10
1.1858
 20
14.5958
 30
0.0
 11
1.2473
 21
14.554
 31
0.0
  0
LINE
  8
0
  5
658
  6
CONTINUOUS
 62
4
 10
2.129
 20
14.2398
 30
0.0
 11
2.1905
 21
14.198
 31
0.0
  0
LINE
  8
0
  5
65A
  6
CONTINUOUS
 62
4
 10
-4.0202
 20
23.3243
 30
0.0
 11
-4.0821
 21
23.3839
 31
0.0
  0
LINE
  8
0
  5
65C
  6
CONTINUOUS
 62
4
 10
-4.1439
 20
23.7412
 30
0.0
 11
-4.0614
 21
23.6618
 31
0.0
  0
LINE
  8
0
  5
65E
  6
CONTINUOUS
 62
4
 10
-3.5051
 20
23.5824
 30
0.0
 11
-3.5875
 21
23.6618
 31
0.0
  0
LINE
  8
0
  5
660
  6
CONTINUOUS
 62
4
 10
-3.2166
 20
23.3243
 30
0.0
 11
-3.1547
 21
23.2648
 31
0.0
  0
LINE
  8
0
  5
662
  6
CONTINUOUS
 62
4
 10
-3.7111
 20
23.9794
 30
0.0
 11
-3.6699
 21
23.9397
 31
0.0
  0
LINE
  8
0
  5
664
  6
CONTINUOUS
 62
4
 10
-2.6396
 20
23.9794
 30
0.0
 11
-2.7014
 21
24.039
 31
0.0
  0
LINE
  8
0
  5
666
  6
CONTINUOUS
 62
4
 10
14.8297
 20
1.6549
 30
0.0
 11
14.7887
 21
1.7596
 31
0.0
  0
LINE
  8
0
  5
668
  6
CONTINUOUS
 62
4
 10
14.8092
 20
2.0737
 30
0.0
 11
14.7682
 21
2.1784
 31
0.0
  0
LINE
  8
0
  5
66A
  6
CONTINUOUS
 62
4
 10
13.9275
 20
1.9272
 30
0.0
 11
13.907
 21
2.0319
 31
0.0
  0
LINE
  8
0
  5
66C
  6
CONTINUOUS
 62
4
 10
13.8045
 20
2.0319
 30
0.0
 11
13.825
 21
1.9062
 31
0.0
  0
LINE
  8
0
  5
66E
  6
CONTINUOUS
 62
4
 10
15.5044
 20
2.7098
 30
0.0
 11
15.5044
 21
1.5287
 31
0.0
  0
LINE
  8
0
  5
670
  6
CONTINUOUS
 62
4
 10
15.8587
 20
2.7098
 30
0.0
 11
15.8587
 21
1.5287
 31
0.0
  0
LINE
  8
0
  5
672
  6
CONTINUOUS
 62
4
 10
16.8572
 20
-3.6963
 30
0.0
 11
16.8572
 21
-3.0972
 31
0.0
  0
LINE
  8
0
  5
674
  6
CONTINUOUS
 62
4
 10
15.4666
 20
2.7492
 30
0.0
 11
15.4805
 21
3.1032
 31
0.0
  0
LINE
  8
0
  5
676
  6
CONTINUOUS
 62
4
 10
19.8271
 20
26.3593
 30
0.0
 11
19.848
 21
26.4763
 31
0.0
  0
LINE
  8
0
  5
678
  6
CONTINUOUS
 62
4
 10
20.3693
 20
26.2228
 30
0.0
 11
20.3484
 21
26.1058
 31
0.0
  0
LINE
  8
0
  5
67A
  6
CONTINUOUS
 62
4
 10
20.4527
 20
26.1058
 30
0.0
 11
20.4735
 21
26.2033
 31
0.0
  0
LINE
  8
0
  5
67C
  6
CONTINUOUS
 62
4
 10
20.954
 20
6.2152
 30
0.0
 11
20.995
 21
6.278
 31
0.0
  0
LINE
  8
0
  5
67E
  6
CONTINUOUS
 62
4
 10
11.2281
 20
-4.5548
 30
0.0
 11
11.1666
 21
-4.6386
 31
0.0
  0
LINE
  8
0
  5
680
  6
CONTINUOUS
 62
4
 10
20.9335
 20
6.3617
 30
0.0
 11
20.872
 21
6.278
 31
0.0
  0
LINE
  8
0
  5
682
  6
CONTINUOUS
 62
4
 10
-3.8343
 20
-18.9338
 30
0.0
 11
-3.7523
 21
-18.85
 31
0.0
  0
LINE
  8
0
  5
684
  6
CONTINUOUS
 62
4
 10
21.4256
 20
6.0267
 30
0.0
 11
21.3846
 21
5.9848
 31
0.0
  0
LINE
  8
0
  5
686
  6
CONTINUOUS
 62
4
 10
-2.9321
 20
-18.9338
 30
0.0
 11
-2.8501
 21
-18.85
 31
0.0
  0
LINE
  8
0
  5
688
  6
CONTINUOUS
 62
4
 10
21.8768
 20
6.3617
 30
0.0
 11
21.8152
 21
6.2989
 31
0.0
  0
LINE
  8
0
  5
68A
  6
CONTINUOUS
 62
4
 10
10.8385
 20
-4.9317
 30
0.0
 11
10.9
 21
-4.8689
 31
0.0
  0
LINE
  8
0
  5
68C
  6
CONTINUOUS
 62
4
 10
11.2896
 20
-4.6595
 30
0.0
 11
11.3306
 21
-4.6176
 31
0.0
  0
LINE
  8
0
  5
68E
  6
CONTINUOUS
 62
4
 10
22.7585
 20
6.3827
 30
0.0
 11
22.6765
 21
6.2989
 31
0.0
  0
LINE
  8
0
  5
690
  6
CONTINUOUS
 62
4
 10
22.3279
 20
5.545
 30
0.0
 11
22.3894
 21
5.6079
 31
0.0
  0
LINE
  8
0
  5
692
  6
CONTINUOUS
 62
4
 10
11.3101
 20
-4.492
 30
0.0
 11
11.2281
 21
-4.5548
 31
0.0
  0
LINE
  8
0
  5
694
  6
CONTINUOUS
 62
4
 10
10.4489
 20
-4.1988
 30
0.0
 11
10.5104
 21
-4.1569
 31
0.0
  0
LINE
  8
0
  5
696
  6
CONTINUOUS
 62
4
 10
10.777
 20
-4.848
 30
0.0
 11
10.7155
 21
-4.8899
 31
0.0
  0
LINE
  8
0
  5
698
  6
CONTINUOUS
 62
4
 10
10.4899
 20
-4.0522
 30
0.0
 11
10.3874
 21
-4.115
 31
0.0
  0
LINE
  8
0
  5
69A
  6
CONTINUOUS
 62
4
 10
10.736
 20
-4.9946
 30
0.0
 11
10.8385
 21
-4.9317
 31
0.0
  0
LINE
  8
0
  5
69C
  6
CONTINUOUS
 62
4
 10
19.5354
 20
1.6802
 30
0.0
 11
8.2765
 21
-4.5736
 31
0.0
  0
LINE
  8
0
  5
69E
  6
CONTINUOUS
 62
4
 10
11.3306
 20
-4.6176
 30
0.0
 11
11.3921
 21
-4.5967
 31
0.0
  0
LINE
  8
0
  5
6A0
  6
CONTINUOUS
 62
4
 10
0.9602
 20
13.7582
 30
0.0
 11
1.0832
 21
13.7372
 31
0.0
  0
LINE
  8
0
  5
6A2
  6
CONTINUOUS
 62
4
 10
-0.0241
 20
13.7582
 30
0.0
 11
0.0785
 21
13.7372
 31
0.0
  0
LINE
  8
0
  5
6A4
  6
CONTINUOUS
 62
4
 10
1.0832
 20
13.842
 30
0.0
 11
0.9807
 21
13.8629
 31
0.0
  0
LINE
  8
0
  5
6A6
  6
CONTINUOUS
 62
4
 10
1.8214
 20
13.7582
 30
0.0
 11
1.9239
 21
13.7372
 31
0.0
  0
LINE
  8
0
  5
6A8
  6
CONTINUOUS
 62
4
 10
0.345
 20
14.2817
 30
0.0
 11
0.2425
 21
14.3027
 31
0.0
  0
LINE
  8
0
  5
6AA
  6
CONTINUOUS
 62
4
 10
0.3245
 20
14.7006
 30
0.0
 11
0.222
 21
14.7215
 31
0.0
  0
LINE
  8
0
  5
6AC
  6
CONTINUOUS
 62
4
 10
2.1495
 20
14.3445
 30
0.0
 11
2.047
 21
14.3655
 31
0.0
  0
LINE
  8
0
  5
6AE
  6
CONTINUOUS
 62
4
 10
1.0832
 20
14.6168
 30
0.0
 11
1.1858
 21
14.5958
 31
0.0
  0
LINE
  8
0
  5
6B0
  6
CONTINUOUS
 62
4
 10
0.0375
 20
14.198
 30
0.0
 11
0.1195
 21
14.177
 31
0.0
  0
LINE
  8
0
  5
6B2
  6
CONTINUOUS
 62
4
 10
0.0785
 20
13.8629
 30
0.0
 11
-0.0036
 21
13.8838
 31
0.0
  0
LINE
  8
0
  5
6B4
  6
CONTINUOUS
 62
4
 10
0.2425
 20
14.177
 30
0.0
 11
0.3245
 21
14.1561
 31
0.0
  0
LINE
  8
0
  5
6B6
  6
CONTINUOUS
 62
4
 10
1.9239
 20
13.842
 30
0.0
 11
1.8419
 21
13.8629
 31
0.0
  0
LINE
  8
0
  5
6B8
  6
CONTINUOUS
 62
4
 10
2.047
 20
14.2608
 30
0.0
 11
2.129
 21
14.2398
 31
0.0
  0
LINE
  8
0
  5
6BA
  6
CONTINUOUS
 62
4
 10
-14.6778
 20
19.3892
 30
0.0
 11
-11.2204
 21
18.3531
 31
0.0
  0
LINE
  8
0
  5
6BC
  6
CONTINUOUS
 62
4
 10
12.4012
 20
12.0829
 30
0.0
 11
1.4593
 21
15.4162
 31
0.0
  0
LINE
  8
0
  5
6BE
  6
CONTINUOUS
 62
4
 10
0.1195
 20
14.3027
 30
0.0
 11
0.058
 21
14.3236
 31
0.0
  0
LINE
  8
0
  5
6C0
  6
CONTINUOUS
 62
4
 10
0.2425
 20
14.5958
 30
0.0
 11
0.304
 21
14.5749
 31
0.0
  0
LINE
  8
0
  5
6C2
  6
CONTINUOUS
 62
4
 10
-3.3016
 20
16.9347
 30
0.0
 11
-8.0919
 21
18.8951
 31
0.0
  0
LINE
  8
0
  5
6C4
  6
CONTINUOUS
 62
4
 10
22.7585
 20
5.9429
 30
0.0
 11
22.8405
 21
5.901
 31
0.0
  0
LINE
  8
0
  5
6C6
  6
CONTINUOUS
 62
4
 10
23.2301
 20
5.9429
 30
0.0
 11
23.1481
 21
5.9848
 31
0.0
  0
LINE
  8
0
  5
6C8
  6
CONTINUOUS
 62
4
 10
20.954
 20
5.545
 30
0.0
 11
21.0566
 21
5.4822
 31
0.0
  0
LINE
  8
0
  5
6CA
  6
CONTINUOUS
 62
4
 10
20.9335
 20
5.901
 30
0.0
 11
21.036
 21
5.8382
 31
0.0
  0
LINE
  8
0
  5
6CC
  6
CONTINUOUS
 62
4
 10
21.8768
 20
5.545
 30
0.0
 11
21.9793
 21
5.4822
 31
0.0
  0
LINE
  8
0
  5
6CE
  6
CONTINUOUS
 62
4
 10
21.4462
 20
6.3617
 30
0.0
 11
21.3436
 21
6.4246
 31
0.0
  0
LINE
  8
0
  5
6D0
  6
CONTINUOUS
 62
4
 10
21.0771
 20
5.5869
 30
0.0
 11
21.0155
 21
5.6288
 31
0.0
  0
LINE
  8
0
  5
6D2
  6
CONTINUOUS
 62
4
 10
21.0566
 20
5.9429
 30
0.0
 11
20.995
 21
5.9848
 31
0.0
  0
LINE
  8
0
  5
6D4
  6
CONTINUOUS
 62
4
 10
21.9998
 20
5.5869
 30
0.0
 11
21.9383
 21
5.6288
 31
0.0
  0
LINE
  8
0
  5
6D6
  6
CONTINUOUS
 62
4
 10
21.3231
 20
6.3199
 30
0.0
 11
21.3846
 21
6.278
 31
0.0
  0
LINE
  8
0
  5
6D8
  6
CONTINUOUS
 62
4
 10
-1.671
 20
23.9794
 30
0.0
 11
-1.7534
 21
24.0588
 31
0.0
  0
LINE
  8
0
  5
6DA
  6
CONTINUOUS
 62
4
 10
-3.1702
 20
25.9508
 30
0.0
 11
-3.1087
 21
25.8879
 31
0.0
  0
LINE
  8
0
  5
6DC
  6
CONTINUOUS
 62
4
 10
-2.596
 20
26.6418
 30
0.0
 11
-2.6576
 21
26.7047
 31
0.0
  0
LINE
  8
0
  5
6DE
  6
CONTINUOUS
 62
4
 10
-2.1039
 20
25.9508
 30
0.0
 11
-2.1449
 21
25.9926
 31
0.0
  0
LINE
  8
0
  5
6E0
  6
CONTINUOUS
 62
4
 10
-2.309
 20
26.3696
 30
0.0
 11
-2.2269
 21
26.2858
 31
0.0
  0
LINE
  8
0
  5
6E2
  6
CONTINUOUS
 62
4
 10
-1.6733
 20
26.2021
 30
0.0
 11
-1.7553
 21
26.2858
 31
0.0
  0
LINE
  8
0
  5
6E4
  6
CONTINUOUS
 62
4
 10
-1.7963
 20
26.6418
 30
0.0
 11
-1.7348
 21
26.579
 31
0.0
  0
LINE
  8
0
  5
6E6
  6
CONTINUOUS
 62
4
 10
19.5354
 20
1.6802
 30
0.0
 11
19.3633
 21
1.9899
 31
0.0
  0
LINE
  8
0
  5
6E8
  6
CONTINUOUS
 62
4
 10
18.8471
 20
26.5348
 30
0.0
 11
18.8471
 21
26.4568
 31
0.0
  0
LINE
  8
0
  5
6EA
  6
CONTINUOUS
 62
4
 10
18.9722
 20
26.4763
 30
0.0
 11
18.9722
 21
26.5153
 31
0.0
  0
LINE
  8
0
  5
6EC
  6
CONTINUOUS
 62
4
 10
19.431
 20
26.1253
 30
0.0
 11
19.431
 21
26.0668
 31
0.0
  0
LINE
  8
0
  5
6EE
  6
CONTINUOUS
 62
4
 10
19.5561
 20
26.0473
 30
0.0
 11
19.5561
 21
26.1448
 31
0.0
  0
LINE
  8
0
  5
6F0
  6
CONTINUOUS
 62
4
 10
19.7229
 20
26.3788
 30
0.0
 11
19.7229
 21
26.2033
 31
0.0
  0
LINE
  8
0
  5
6F2
  6
CONTINUOUS
 62
4
 10
19.8271
 20
26.2228
 30
0.0
 11
19.8271
 21
26.3593
 31
0.0
  0
LINE
  8
0
  5
6F4
  6
CONTINUOUS
 62
4
 10
20.9335
 20
6.1523
 30
0.0
 11
20.954
 21
6.2152
 31
0.0
  0
LINE
  8
0
  5
6F6
  6
CONTINUOUS
 62
4
 10
20.872
 20
6.278
 30
0.0
 11
20.831
 21
6.1733
 31
0.0
  0
LINE
  8
0
  5
6F8
  6
CONTINUOUS
 62
4
 10
21.5077
 20
5.6288
 30
0.0
 11
21.5487
 21
5.7335
 31
0.0
  0
LINE
  8
0
  5
6FA
  6
CONTINUOUS
 62
4
 10
21.8152
 20
6.2989
 30
0.0
 11
21.7742
 21
6.2152
 31
0.0
  0
LINE
  8
0
  5
6FC
  6
CONTINUOUS
 62
4
 10
21.4256
 20
5.6916
 30
0.0
 11
21.3846
 21
5.6288
 31
0.0
  0
LINE
  8
0
  5
6FE
  6
CONTINUOUS
 62
4
 10
21.8563
 20
6.1523
 30
0.0
 11
21.9383
 21
6.278
 31
0.0
  0
LINE
  8
0
  5
700
  6
CONTINUOUS
 62
4
 10
22.3484
 20
5.7544
 30
0.0
 11
22.2664
 21
5.6288
 31
0.0
  0
LINE
  8
0
  5
702
  6
CONTINUOUS
 62
4
 10
22.7585
 20
6.1942
 30
0.0
 11
22.7995
 21
6.257
 31
0.0
  0
LINE
  8
0
  5
704
  6
CONTINUOUS
 62
4
 10
21.4462
 20
5.545
 30
0.0
 11
21.5077
 21
5.6288
 31
0.0
  0
LINE
  8
0
  5
706
  6
CONTINUOUS
 62
4
 10
23.2301
 20
5.5241
 30
0.0
 11
23.3121
 21
5.6079
 31
0.0
  0
LINE
  8
0
  5
708
  6
CONTINUOUS
 62
4
 10
-4.3265
 20
-18.2008
 30
0.0
 11
-4.2649
 21
-18.159
 31
0.0
  0
LINE
  8
0
  5
70A
  6
CONTINUOUS
 62
4
 10
17.2623
 20
-2.4089
 30
0.0
 11
20.9358
 21
-0.3684
 31
0.0
  0
LINE
  8
0
  5
70C
  6
CONTINUOUS
 62
4
 10
2.129
 20
13.8629
 30
0.0
 11
2.047
 21
13.842
 31
0.0
  0
LINE
  8
0
  5
70E
  6
CONTINUOUS
 62
4
 10
2.047
 20
13.7372
 30
0.0
 11
2.1495
 21
13.7582
 31
0.0
  0
LINE
  8
0
  5
710
  6
CONTINUOUS
 62
4
 10
1.1858
 20
13.8629
 30
0.0
 11
1.0832
 21
13.842
 31
0.0
  0
LINE
  8
0
  5
712
  6
CONTINUOUS
 62
4
 10
0.2425
 20
13.7372
 30
0.0
 11
0.345
 21
13.7582
 31
0.0
  0
LINE
  8
0
  5
714
  6
CONTINUOUS
 62
4
 10
1.9239
 20
14.3655
 30
0.0
 11
1.8214
 21
14.3445
 31
0.0
  0
LINE
  8
0
  5
716
  6
CONTINUOUS
 62
4
 10
1.0832
 20
13.7372
 30
0.0
 11
1.2063
 21
13.7582
 31
0.0
  0
LINE
  8
0
  5
718
  6
CONTINUOUS
 62
4
 10
0.0785
 20
13.7372
 30
0.0
 11
0.2425
 21
13.7372
 31
0.0
  0
LINE
  8
0
  5
71A
  6
CONTINUOUS
 62
4
 10
1.9239
 20
13.7372
 30
0.0
 11
2.047
 21
13.7372
 31
0.0
  0
LINE
  8
0
  5
71C
  6
CONTINUOUS
 62
4
 10
2.047
 20
13.842
 30
0.0
 11
1.9239
 21
13.842
 31
0.0
  0
LINE
  8
0
  5
71E
  6
CONTINUOUS
 62
4
 10
0.2425
 20
13.8629
 30
0.0
 11
0.0785
 21
13.8629
 31
0.0
  0
LINE
  8
0
  5
720
  6
CONTINUOUS
 62
4
 10
1.7394
 20
13.9885
 30
0.0
 11
1.6164
 21
13.9885
 31
0.0
  0
LINE
  8
0
  5
722
  6
CONTINUOUS
 62
4
 10
-0.0856
 20
14.0095
 30
0.0
 11
-0.2086
 21
14.0095
 31
0.0
  0
LINE
  8
0
  5
724
  6
CONTINUOUS
 62
4
 10
0.1195
 20
14.177
 30
0.0
 11
0.2425
 21
14.177
 31
0.0
  0
LINE
  8
0
  5
726
  6
CONTINUOUS
 62
4
 10
1.6164
 20
14.177
 30
0.0
 11
1.7599
 21
14.177
 31
0.0
  0
LINE
  8
0
  5
728
  6
CONTINUOUS
 62
4
 10
1.9239
 20
14.2608
 30
0.0
 11
2.047
 21
14.2608
 31
0.0
  0
LINE
  8
0
  5
72A
  6
CONTINUOUS
 62
4
 10
0.2425
 20
14.3027
 30
0.0
 11
0.1195
 21
14.3027
 31
0.0
  0
LINE
  8
0
  5
72C
  6
CONTINUOUS
 62
4
 10
2.047
 20
14.3655
 30
0.0
 11
1.9239
 21
14.3655
 31
0.0
  0
LINE
  8
0
  5
72E
  6
CONTINUOUS
 62
4
 10
0.3655
 20
14.4911
 30
0.0
 11
0.4886
 21
14.4911
 31
0.0
  0
LINE
  8
0
  5
730
  6
CONTINUOUS
 62
4
 10
0.1195
 20
14.5958
 30
0.0
 11
0.2425
 21
14.5958
 31
0.0
  0
LINE
  8
0
  5
732
  6
CONTINUOUS
 62
4
 10
1.7189
 20
14.6168
 30
0.0
 11
2.3135
 21
14.6168
 31
0.0
  0
LINE
  8
0
  5
734
  6
CONTINUOUS
 62
4
 10
2.3135
 20
14.7215
 30
0.0
 11
1.6164
 21
14.7215
 31
0.0
  0
LINE
  8
0
  5
736
  6
CONTINUOUS
 62
4
 10
0.222
 20
14.7215
 30
0.0
 11
0.1195
 21
14.7215
 31
0.0
  0
LINE
  8
0
  5
738
  6
CONTINUOUS
 62
4
 10
1.2063
 20
14.7006
 30
0.0
 11
1.0832
 21
14.7215
 31
0.0
  0
LINE
  8
0
  5
73A
  6
CONTINUOUS
 62
4
 10
-12.4242
 20
19.9469
 30
0.0
 11
-11.2204
 21
19.5861
 31
0.0
  0
LINE
  8
0
  5
73C
  6
CONTINUOUS
 62
4
 10
-4.1439
 20
23.2648
 30
0.0
 11
-4.0408
 21
23.2052
 31
0.0
  0
LINE
  8
0
  5
73E
  6
CONTINUOUS
 62
4
 10
-3.1547
 20
23.2648
 30
0.0
 11
-3.0517
 21
23.2052
 31
0.0
  0
LINE
  8
0
  5
740
  6
CONTINUOUS
 62
4
 10
22.3279
 20
6.3617
 30
0.0
 11
22.2254
 21
6.4246
 31
0.0
  0
LINE
  8
0
  5
742
  6
CONTINUOUS
 62
4
 10
23.3121
 20
6.3617
 30
0.0
 11
23.2096
 21
6.4246
 31
0.0
  0
LINE
  8
0
  5
744
  6
CONTINUOUS
 62
4
 10
-3.9584
 20
23.7412
 30
0.0
 11
-4.0202
 21
23.7809
 31
0.0
  0
LINE
  8
0
  5
746
  6
CONTINUOUS
 62
4
 10
-3.6905
 20
23.5824
 30
0.0
 11
-3.6287
 21
23.5427
 31
0.0
  0
LINE
  8
0
  5
748
  6
CONTINUOUS
 62
4
 10
-3.0311
 20
23.3045
 30
0.0
 11
-3.0929
 21
23.3442
 31
0.0
  0
LINE
  8
0
  5
74A
  6
CONTINUOUS
 62
4
 10
-2.825
 20
23.9993
 30
0.0
 11
-2.7632
 21
23.9596
 31
0.0
  0
LINE
  8
0
  5
74C
  6
CONTINUOUS
 62
4
 10
-1.8771
 20
23.9993
 30
0.0
 11
-1.8153
 21
23.9596
 31
0.0
  0
LINE
  8
0
  5
74E
  6
CONTINUOUS
 62
4
 10
22.2048
 20
6.3199
 30
0.0
 11
22.2664
 21
6.278
 31
0.0
  0
LINE
  8
0
  5
750
  6
CONTINUOUS
 62
4
 10
22.861
 20
6.0267
 30
0.0
 11
22.7995
 21
6.0686
 31
0.0
  0
LINE
  8
0
  5
752
  6
CONTINUOUS
 62
4
 10
23.1276
 20
5.8592
 30
0.0
 11
23.1891
 21
5.8173
 31
0.0
  0
LINE
  8
0
  5
754
  6
CONTINUOUS
 62
4
 10
-3.6081
 20
24.039
 30
0.0
 11
-3.6905
 21
24.0985
 31
0.0
  0
LINE
  8
0
  5
756
  6
CONTINUOUS
 62
4
 10
22.779
 20
5.545
 30
0.0
 11
22.861
 21
5.4822
 31
0.0
  0
LINE
  8
0
  5
758
  6
CONTINUOUS
 62
4
 10
-2.2064
 20
25.8879
 30
0.0
 11
-2.1244
 21
25.8251
 31
0.0
  0
LINE
  8
0
  5
75A
  6
CONTINUOUS
 62
4
 10
20.872
 20
5.9639
 30
0.0
 11
20.9335
 21
5.901
 31
0.0
  0
LINE
  8
0
  5
75C
  6
CONTINUOUS
 62
4
 10
20.995
 20
5.9848
 30
0.0
 11
20.954
 21
6.0267
 31
0.0
  0
LINE
  8
0
  5
75E
  6
CONTINUOUS
 62
4
 10
21.8152
 20
5.6079
 30
0.0
 11
21.8768
 21
5.545
 31
0.0
  0
LINE
  8
0
  5
760
  6
CONTINUOUS
 62
4
 10
22.8815
 20
5.6079
 30
0.0
 11
22.8405
 21
5.6497
 31
0.0
  0
LINE
  8
0
  5
762
  6
CONTINUOUS
 62
4
 10
20.8925
 20
5.6288
 30
0.0
 11
20.954
 21
5.545
 31
0.0
  0
LINE
  8
0
  5
764
  6
CONTINUOUS
 62
4
 10
21.0155
 20
5.6288
 30
0.0
 11
20.9745
 21
5.6916
 31
0.0
  0
LINE
  8
0
  5
766
  6
CONTINUOUS
 62
4
 10
11.423
 20
22.3458
 30
0.0
 11
11.9204
 21
21.0758
 31
0.0
  0
LINE
  8
0
  5
768
  6
CONTINUOUS
 62
4
 10
20.3693
 20
26.3593
 30
0.0
 11
20.3693
 21
26.2228
 31
0.0
  0
LINE
  8
0
  5
76A
  6
CONTINUOUS
 62
4
 10
20.4735
 20
26.2033
 30
0.0
 11
20.4735
 21
26.3788
 31
0.0
  0
LINE
  8
0
  5
76C
  6
CONTINUOUS
 62
4
 10
20.831
 20
6.1733
 30
0.0
 11
20.831
 21
6.0686
 31
0.0
  0
LINE
  8
0
  5
76E
  6
CONTINUOUS
 62
4
 10
20.9335
 20
6.0895
 30
0.0
 11
20.9335
 21
6.1523
 31
0.0
  0
LINE
  8
0
  5
770
  6
CONTINUOUS
 62
4
 10
20.974
 20
26.3398
 30
0.0
 11
20.974
 21
26.2618
 31
0.0
  0
LINE
  8
0
  5
772
  6
CONTINUOUS
 62
4
 10
21.2659
 20
26.5348
 30
0.0
 11
21.2659
 21
26.4958
 31
0.0
  0
LINE
  8
0
  5
774
  6
CONTINUOUS
 62
4
 10
21.2868
 20
26.1253
 30
0.0
 11
21.2868
 21
26.0473
 31
0.0
  0
LINE
  8
0
  5
776
  6
CONTINUOUS
 62
4
 10
21.3702
 20
26.4958
 30
0.0
 11
21.3702
 21
26.5348
 31
0.0
  0
LINE
  8
0
  5
778
  6
CONTINUOUS
 62
4
 10
21.391
 20
26.0473
 30
0.0
 11
21.391
 21
26.1253
 31
0.0
  0
LINE
  8
0
  5
77A
  6
CONTINUOUS
 62
4
 10
21.4462
 20
6.1523
 30
0.0
 11
21.4462
 21
6.0895
 31
0.0
  0
LINE
  8
0
  5
77C
  6
CONTINUOUS
 62
4
 10
21.4667
 20
5.922
 30
0.0
 11
21.4667
 21
5.8801
 31
0.0
  0
LINE
  8
0
  5
77E
  6
CONTINUOUS
 62
4
 10
21.5692
 20
5.8801
 30
0.0
 11
21.5692
 21
6.0267
 31
0.0
  0
LINE
  8
0
  5
780
  6
CONTINUOUS
 62
4
 10
21.7332
 20
6.0476
 30
0.0
 11
21.7332
 21
5.8592
 31
0.0
  0
LINE
  8
0
  5
782
  6
CONTINUOUS
 62
4
 10
21.8358
 20
5.8801
 30
0.0
 11
21.8358
 21
6.0267
 31
0.0
  0
LINE
  8
0
  5
784
  6
CONTINUOUS
 62
4
 10
22.1056
 20
-1.0567
 30
0.0
 11
22.1056
 21
-3.8245
 31
0.0
  0
LINE
  8
0
  5
786
  6
CONTINUOUS
 62
4
 10
21.5487
 20
5.7335
 30
0.0
 11
21.5692
 21
5.8801
 31
0.0
  0
LINE
  8
0
  5
788
  6
CONTINUOUS
 62
4
 10
21.4667
 20
5.8801
 30
0.0
 11
21.4462
 21
5.7544
 31
0.0
  0
LINE
  8
0
  5
78A
  6
CONTINUOUS
 62
4
 10
21.8358
 20
6.0267
 30
0.0
 11
21.8563
 21
6.1523
 31
0.0
  0
LINE
  8
0
  5
78C
  6
CONTINUOUS
 62
4
 10
22.3689
 20
5.8801
 30
0.0
 11
22.3484
 21
5.7544
 31
0.0
  0
LINE
  8
0
  5
78E
  6
CONTINUOUS
 62
4
 10
21.7537
 20
6.1523
 30
0.0
 11
21.7332
 21
6.0476
 31
0.0
  0
LINE
  8
0
  5
790
  6
CONTINUOUS
 62
4
 10
22.4509
 20
5.7544
 30
0.0
 11
22.4714
 21
5.8592
 31
0.0
  0
LINE
  8
0
  5
792
  6
CONTINUOUS
 62
4
 10
21.4462
 20
6.0895
 30
0.0
 11
21.4256
 21
6.0267
 31
0.0
  0
LINE
  8
0
  5
794
  6
CONTINUOUS
 62
4
 10
21.4462
 20
5.7544
 30
0.0
 11
21.4256
 21
5.6916
 31
0.0
  0
LINE
  8
0
  5
796
  6
CONTINUOUS
 62
4
 10
21.7742
 20
6.2152
 30
0.0
 11
21.7537
 21
6.1523
 31
0.0
  0
LINE
  8
0
  5
798
  6
CONTINUOUS
 62
4
 10
22.4304
 20
5.6916
 30
0.0
 11
22.4509
 21
5.7544
 31
0.0
  0
LINE
  8
0
  5
79A
  6
CONTINUOUS
 62
4
 10
23.2096
 20
5.7126
 30
0.0
 11
23.1891
 21
5.6497
 31
0.0
  0
LINE
  8
0
  5
79C
  6
CONTINUOUS
 62
4
 10
28.434
 20
21.0758
 30
0.0
 11
28.9315
 21
22.3458
 31
0.0
  0
LINE
  8
0
  5
79E
  6
CONTINUOUS
 62
4
 10
22.6765
 20
6.2989
 30
0.0
 11
22.6355
 21
6.2152
 31
0.0
  0
LINE
  8
0
  5
7A0
  6
CONTINUOUS
 62
4
 10
22.3894
 20
5.6079
 30
0.0
 11
22.4304
 21
5.6916
 31
0.0
  0
LINE
  8
0
  5
7A2
  6
CONTINUOUS
 62
4
 10
-3.3627
 20
-18.2008
 30
0.0
 11
-3.3012
 21
-18.159
 31
0.0
  0
LINE
  8
0
  5
7A4
  6
CONTINUOUS
 62
4
 10
-3.8753
 20
-18.8081
 30
0.0
 11
-3.9369
 21
-18.85
 31
0.0
  0
LINE
  8
0
  5
7A6
  6
CONTINUOUS
 62
4
 10
-2.9731
 20
-18.8081
 30
0.0
 11
-3.0346
 21
-18.85
 31
0.0
  0
LINE
  8
0
  5
7A8
  6
CONTINUOUS
 62
4
 10
-4.2854
 20
-18.0333
 30
0.0
 11
-4.3675
 21
-18.0752
 31
0.0
  0
LINE
  8
0
  5
7AA
  6
CONTINUOUS
 62
4
 10
1.8419
 20
14.2398
 30
0.0
 11
1.9239
 21
14.2608
 31
0.0
  0
LINE
  8
0
  5
7AC
  6
CONTINUOUS
 62
4
 10
0.3245
 20
13.8838
 30
0.0
 11
0.2425
 21
13.8629
 31
0.0
  0
LINE
  8
0
  5
7AE
  6
CONTINUOUS
 62
4
 10
0.1195
 20
14.7215
 30
0.0
 11
0.0375
 21
14.7006
 31
0.0
  0
LINE
  8
0
  5
7B0
  6
CONTINUOUS
 62
4
 10
26.7202
 20
19.6257
 30
0.0
 11
20.6629
 21
18.3531
 31
0.0
  0
LINE
  8
0
  5
7B2
  6
CONTINUOUS
 62
4
 10
0.9807
 20
14.5958
 30
0.0
 11
1.0832
 21
14.6168
 31
0.0
  0
LINE
  8
0
  5
7B4
  6
CONTINUOUS
 62
4
 10
1.0832
 20
14.7215
 30
0.0
 11
0.9602
 21
14.7006
 31
0.0
  0
LINE
  8
0
  5
7B6
  6
CONTINUOUS
 62
4
 10
27.7036
 20
11.0241
 30
0.0
 11
22.5164
 21
12.9029
 31
0.0
  0
LINE
  8
0
  5
7B8
  6
CONTINUOUS
 62
4
 10
-4.0614
 20
23.6618
 30
0.0
 11
-3.979
 21
23.6221
 31
0.0
  0
LINE
  8
0
  5
7BA
  6
CONTINUOUS
 62
4
 10
-3.5875
 20
23.6618
 30
0.0
 11
-3.6699
 21
23.7015
 31
0.0
  0
LINE
  8
0
  5
7BC
  6
CONTINUOUS
 62
4
 10
-1.7534
 20
24.0588
 30
0.0
 11
-1.8359
 21
24.0985
 31
0.0
  0
LINE
  8
0
  5
7BE
  6
CONTINUOUS
 62
4
 10
-2.7014
 20
24.039
 30
0.0
 11
-2.8044
 21
24.0985
 31
0.0
  0
LINE
  8
0
  5
7C0
  6
CONTINUOUS
 62
4
 10
-3.1087
 20
25.8879
 30
0.0
 11
-3.0061
 21
25.8251
 31
0.0
  0
LINE
  8
0
  5
7C2
  6
CONTINUOUS
 62
4
 10
-2.6576
 20
26.7047
 30
0.0
 11
-2.7601
 21
26.7675
 31
0.0
  0
LINE
  8
0
  5
7C4
  6
CONTINUOUS
 62
4
 10
-2.9856
 20
25.9298
 30
0.0
 11
-3.0472
 21
25.9717
 31
0.0
  0
LINE
  8
0
  5
7C6
  6
CONTINUOUS
 62
4
 10
-2.7806
 20
26.6628
 30
0.0
 11
-2.7191
 21
26.6209
 31
0.0
  0
LINE
  8
0
  5
7C8
  6
CONTINUOUS
 62
4
 10
-2.1244
 20
26.3696
 30
0.0
 11
-2.1859
 21
26.4115
 31
0.0
  0
LINE
  8
0
  5
7CA
  6
CONTINUOUS
 62
4
 10
-1.8578
 20
26.2021
 30
0.0
 11
-1.7963
 21
26.1602
 31
0.0
  0
LINE
  8
0
  5
7CC
  6
CONTINUOUS
 62
4
 10
23.1891
 20
6.2989
 30
0.0
 11
23.2506
 21
6.2361
 31
0.0
  0
LINE
  8
0
  5
7CE
  6
CONTINUOUS
 62
4
 10
22.3894
 20
6.2989
 30
0.0
 11
22.3279
 21
6.3617
 31
0.0
  0
LINE
  8
0
  5
7D0
  6
CONTINUOUS
 62
4
 10
22.6765
 20
6.0267
 30
0.0
 11
22.7585
 21
5.9429
 31
0.0
  0
LINE
  8
0
  5
7D2
  6
CONTINUOUS
 62
4
 10
23.3121
 20
5.8592
 30
0.0
 11
23.2301
 21
5.9429
 31
0.0
  0
LINE
  8
0
  5
7D4
  6
CONTINUOUS
 62
4
 10
21.5077
 20
6.278
 30
0.0
 11
21.4462
 21
6.3617
 31
0.0
  0
LINE
  8
0
  5
7D6
  6
CONTINUOUS
 62
4
 10
22.7175
 20
5.6288
 30
0.0
 11
22.779
 21
5.545
 31
0.0
  0
LINE
  8
0
  5
7D8
  6
CONTINUOUS
 62
4
 10
21.3846
 20
6.278
 30
0.0
 11
21.4256
 21
6.2152
 31
0.0
  0
LINE
  8
0
  5
7DA
  6
CONTINUOUS
 62
4
 10
21.9383
 20
5.6288
 30
0.0
 11
21.8563
 21
5.7544
 31
0.0
  0
LINE
  8
0
  5
7DC
  6
CONTINUOUS
 62
4
 10
22.2664
 20
6.278
 30
0.0
 11
22.3484
 21
6.1523
 31
0.0
  0
LINE
  8
0
  5
7DE
  6
CONTINUOUS
 62
4
 10
22.7995
 20
6.0686
 30
0.0
 11
22.7585
 21
6.1314
 31
0.0
  0
LINE
  8
0
  5
7E0
  6
CONTINUOUS
 62
4
 10
21.7742
 20
5.6916
 30
0.0
 11
21.8152
 21
5.6079
 31
0.0
  0
LINE
  8
0
  5
7E2
  6
CONTINUOUS
 62
4
 10
22.4304
 20
6.2152
 30
0.0
 11
22.3894
 21
6.2989
 31
0.0
  0
LINE
  8
0
  5
7E4
  6
CONTINUOUS
 62
4
 10
22.8405
 20
5.6497
 30
0.0
 11
22.82
 21
5.6916
 31
0.0
  0
LINE
  8
0
  5
7E6
  6
CONTINUOUS
 62
4
 10
22.6355
 20
6.1104
 30
0.0
 11
22.6765
 21
6.0267
 31
0.0
  0
LINE
  8
0
  5
7E8
  6
CONTINUOUS
 62
4
 10
20.831
 20
6.0686
 30
0.0
 11
20.872
 21
5.9639
 31
0.0
  0
LINE
  8
0
  5
7EA
  6
CONTINUOUS
 62
4
 10
21.5487
 20
6.1733
 30
0.0
 11
21.5077
 21
6.278
 31
0.0
  0
LINE
  8
0
  5
7EC
  6
CONTINUOUS
 62
4
 10
20.872
 20
5.6916
 30
0.0
 11
20.8925
 21
5.6288
 31
0.0
  0
LINE
  8
0
  5
7EE
  6
CONTINUOUS
 62
4
 10
20.954
 20
6.0267
 30
0.0
 11
20.9335
 21
6.0895
 31
0.0
  0
LINE
  8
0
  5
7F0
  6
CONTINUOUS
 62
4
 10
21.4256
 20
6.2152
 30
0.0
 11
21.4462
 21
6.1523
 31
0.0
  0
LINE
  8
0
  5
7F2
  6
CONTINUOUS
 62
4
 10
21.7537
 20
5.7544
 30
0.0
 11
21.7742
 21
5.6916
 31
0.0
  0
LINE
  8
0
  5
7F4
  6
CONTINUOUS
 62
4
 10
21.7332
 20
5.8592
 30
0.0
 11
21.7537
 21
5.7544
 31
0.0
  0
LINE
  8
0
  5
7F6
  6
CONTINUOUS
 62
4
 10
21.8563
 20
5.7544
 30
0.0
 11
21.8358
 21
5.8801
 31
0.0
  0
LINE
  8
0
  5
7F8
  6
CONTINUOUS
 62
4
 10
21.5692
 20
6.0267
 30
0.0
 11
21.5487
 21
6.1733
 31
0.0
  0
LINE
  8
0
  5
7FA
  6
CONTINUOUS
 62
4
 10
22.3689
 20
6.0267
 30
0.0
 11
22.3689
 21
5.8801
 31
0.0
  0
LINE
  8
0
  5
7FC
  6
CONTINUOUS
 62
4
 10
22.4714
 20
5.8592
 30
0.0
 11
22.4714
 21
6.0476
 31
0.0
  0
LINE
  8
0
  5
7FE
  6
CONTINUOUS
 62
4
 10
22.6355
 20
6.2152
 30
0.0
 11
22.6355
 21
6.1104
 31
0.0
  0
LINE
  8
0
  5
800
  6
CONTINUOUS
 62
4
 10
22.7585
 20
6.1314
 30
0.0
 11
22.7585
 21
6.1942
 31
0.0
  0
LINE
  8
0
  5
802
  6
CONTINUOUS
 62
4
 10
23.2096
 20
5.7544
 30
0.0
 11
23.2096
 21
5.7126
 31
0.0
  0
LINE
  8
0
  5
804
  6
CONTINUOUS
 62
4
 10
23.3326
 20
5.6916
 30
0.0
 11
23.3326
 21
5.7754
 31
0.0
  0
LINE
  8
0
  5
806
  6
CONTINUOUS
 62
4
 10
23.6804
 20
-2.9036
 30
0.0
 11
23.6804
 21
-0.1841
 31
0.0
  0
LINE
  8
0
  5
808
  6
CONTINUOUS
 62
4
 10
23.3121
 20
5.6079
 30
0.0
 11
23.3326
 21
5.6916
 31
0.0
  0
LINE
  8
0
  5
80A
  6
CONTINUOUS
 62
4
 10
-3.3217
 20
-18.0333
 30
0.0
 11
-3.4037
 21
-18.0752
 31
0.0
  0
LINE
  8
0
  5
80C
  6
CONTINUOUS
 62
4
 10
-3.9163
 20
-18.9757
 30
0.0
 11
-3.8343
 21
-18.9338
 31
0.0
  0
LINE
  8
0
  5
80E
  6
CONTINUOUS
 62
4
 10
-3.0141
 20
-18.9757
 30
0.0
 11
-2.9321
 21
-18.9338
 31
0.0
  0
LINE
  8
0
  5
810
  6
CONTINUOUS
 62
4
 10
-3.9378
 20
23.3045
 30
0.0
 11
-4.0202
 21
23.3243
 31
0.0
  0
LINE
  8
0
  5
812
  6
CONTINUOUS
 62
4
 10
3.0755
 20
21.3082
 30
0.0
 11
-2.5348
 21
22.8846
 31
0.0
  0
LINE
  8
0
  5
814
  6
CONTINUOUS
 62
4
 10
-3.8966
 20
23.7213
 30
0.0
 11
-3.9584
 21
23.7412
 31
0.0
  0
LINE
  8
0
  5
816
  6
CONTINUOUS
 62
4
 10
-3.7729
 20
23.9993
 30
0.0
 11
-3.7111
 21
23.9794
 31
0.0
  0
LINE
  8
0
  5
818
  6
CONTINUOUS
 62
4
 10
-2.2269
 20
26.2858
 30
0.0
 11
-2.1449
 21
26.2439
 31
0.0
  0
LINE
  8
0
  5
81A
  6
CONTINUOUS
 62
4
 10
-1.7553
 20
26.2858
 30
0.0
 11
-1.8373
 21
26.3277
 31
0.0
  0
LINE
  8
0
  5
81C
  6
CONTINUOUS
 62
4
 10
-1.6733
 20
26.7047
 30
0.0
 11
-1.7758
 21
26.7675
 31
0.0
  0
LINE
  8
0
  5
81E
  6
CONTINUOUS
 62
4
 10
23.3736
 20
6.257
 30
0.0
 11
23.3121
 21
6.3617
 31
0.0
  0
LINE
  8
0
  5
820
  6
CONTINUOUS
 62
4
 10
22.4509
 20
6.1523
 30
0.0
 11
22.4304
 21
6.2152
 31
0.0
  0
LINE
  8
0
  5
822
  6
CONTINUOUS
 62
4
 10
22.697
 20
5.6916
 30
0.0
 11
22.7175
 21
5.6288
 31
0.0
  0
LINE
  8
0
  5
824
  6
CONTINUOUS
 62
4
 10
23.1891
 20
5.8173
 30
0.0
 11
23.2096
 21
5.7544
 31
0.0
  0
LINE
  8
0
  5
826
  6
CONTINUOUS
 62
4
 10
23.2506
 20
6.2361
 30
0.0
 11
23.2711
 21
6.1733
 31
0.0
  0
LINE
  8
0
  5
828
  6
CONTINUOUS
 62
4
 10
18.7845
 20
26.0863
 30
0.0
 11
18.8054
 21
26.0083
 31
0.0
  0
LINE
  8
0
  5
82A
  6
CONTINUOUS
 62
4
 10
18.8471
 20
26.4568
 30
0.0
 11
18.8679
 21
26.3788
 31
0.0
  0
LINE
  8
0
  5
82C
  6
CONTINUOUS
 62
4
 10
23.3326
 20
5.7754
 30
0.0
 11
23.3121
 21
5.8592
 31
0.0
  0
LINE
  8
0
  5
82E
  6
CONTINUOUS
 62
4
 10
23.3942
 20
6.1733
 30
0.0
 11
23.3736
 21
6.257
 31
0.0
  0
LINE
  8
0
  5
830
  6
CONTINUOUS
 62
4
 10
19.7229
 20
26.2033
 30
0.0
 11
19.7437
 21
26.1058
 31
0.0
  0
LINE
  8
0
  5
832
  6
CONTINUOUS
 62
4
 10
22.4714
 20
6.0476
 30
0.0
 11
22.4509
 21
6.1523
 31
0.0
  0
LINE
  8
0
  5
834
  6
CONTINUOUS
 62
4
 10
19.848
 20
26.1058
 30
0.0
 11
19.8271
 21
26.2228
 31
0.0
  0
LINE
  8
0
  5
836
  6
CONTINUOUS
 62
4
 10
20.3484
 20
26.4763
 30
0.0
 11
20.3693
 21
26.3593
 31
0.0
  0
LINE
  8
0
  5
838
  6
CONTINUOUS
 62
4
 10
22.3484
 20
6.1523
 30
0.0
 11
22.3689
 21
6.0267
 31
0.0
  0
LINE
  8
0
  5
83A
  6
CONTINUOUS
 62
4
 10
25.0985
 20
3.0821
 30
0.0
 11
25.0985
 21
3.4758
 31
0.0
  0
LINE
  8
0
  5
83C
  6
CONTINUOUS
 62
4
 10
25.0985
 20
-5.5323
 30
0.0
 11
25.071
 21
-6.3192
 31
0.0
  0
LINE
  8
0
  5
83E
  6
CONTINUOUS
 62
4
 10
-3.0346
 20
-18.85
 30
0.0
 11
-3.0961
 21
-18.871
 31
0.0
  0
LINE
  8
0
  5
840
  6
CONTINUOUS
 62
4
 10
-1.9578
 20
-17.2384
 30
0.0
 11
-3.6989
 21
-17.8092
 31
0.0
  0
LINE
  8
0
  5
842
  6
CONTINUOUS
 62
4
 10
-3.0517
 20
23.2052
 30
0.0
 11
-2.9281
 21
23.1854
 31
0.0
  0
LINE
  8
0
  5
844
  6
CONTINUOUS
 62
4
 10
-2.8044
 20
24.0985
 30
0.0
 11
-2.9281
 21
24.1184
 31
0.0
  0
LINE
  8
0
  5
846
  6
CONTINUOUS
 62
4
 10
-1.8359
 20
24.0985
 30
0.0
 11
-1.9595
 21
24.1184
 31
0.0
  0
LINE
  8
0
  5
848
  6
CONTINUOUS
 62
4
 10
-4.0408
 20
23.2052
 30
0.0
 11
-3.9378
 21
23.1854
 31
0.0
  0
LINE
  8
0
  5
84A
  6
CONTINUOUS
 62
4
 10
-2.9281
 20
23.2846
 30
0.0
 11
-3.0311
 21
23.3045
 31
0.0
  0
LINE
  8
0
  5
84C
  6
CONTINUOUS
 62
4
 10
-3.6699
 20
23.7015
 30
0.0
 11
-3.7729
 21
23.7213
 31
0.0
  0
LINE
  8
0
  5
84E
  6
CONTINUOUS
 62
4
 10
-3.6905
 20
24.0985
 30
0.0
 11
-3.7936
 21
24.1184
 31
0.0
  0
LINE
  8
0
  5
850
  6
CONTINUOUS
 62
4
 10
-2.9281
 20
24.0191
 30
0.0
 11
-2.825
 21
23.9993
 31
0.0
  0
LINE
  8
0
  5
852
  6
CONTINUOUS
 62
4
 10
-1.9801
 20
24.0191
 30
0.0
 11
-1.8771
 21
23.9993
 31
0.0
  0
LINE
  8
0
  5
854
  6
CONTINUOUS
 62
4
 10
19.6916
 20
18.3531
 30
0.0
 11
13.6342
 21
19.6257
 31
0.0
  0
LINE
  8
0
  5
856
  6
CONTINUOUS
 62
4
 10
-3.979
 20
23.6221
 30
0.0
 11
-3.8966
 21
23.6022
 31
0.0
  0
LINE
  8
0
  5
858
  6
CONTINUOUS
 62
4
 10
-3.7729
 20
23.6022
 30
0.0
 11
-3.6905
 21
23.5824
 31
0.0
  0
LINE
  8
0
  5
85A
  6
CONTINUOUS
 62
4
 10
-2.4753
 20
24.9126
 30
0.0
 11
6.0775
 21
22.5094
 31
0.0
  0
LINE
  8
0
  5
85C
  6
CONTINUOUS
 62
4
 10
-2.0424
 20
25.9298
 30
0.0
 11
-2.1039
 21
25.9508
 31
0.0
  0
LINE
  8
0
  5
85E
  6
CONTINUOUS
 62
4
 10
-1.9194
 20
26.223
 30
0.0
 11
-1.8578
 21
26.2021
 31
0.0
  0
LINE
  8
0
  5
860
  6
CONTINUOUS
 62
4
 10
18.9305
 20
26.0278
 30
0.0
 11
18.9097
 21
26.0863
 31
0.0
  0
LINE
  8
0
  5
862
  6
CONTINUOUS
 62
4
 10
18.9931
 20
26.4178
 30
0.0
 11
18.9722
 21
26.4763
 31
0.0
  0
LINE
  8
0
  5
864
  6
CONTINUOUS
 62
4
 10
19.4935
 20
26.5348
 30
0.0
 11
19.4727
 21
26.5933
 31
0.0
  0
LINE
  8
0
  5
866
  6
CONTINUOUS
 62
4
 10
19.7437
 20
26.1058
 30
0.0
 11
19.7646
 21
26.0473
 31
0.0
  0
LINE
  8
0
  5
868
  6
CONTINUOUS
 62
4
 10
21.391
 20
26.1253
 30
0.0
 11
21.3702
 21
26.2033
 31
0.0
  0
LINE
  8
0
  5
86A
  6
CONTINUOUS
 62
4
 10
20.4735
 20
26.3788
 30
0.0
 11
20.4527
 21
26.4763
 31
0.0
  0
LINE
  8
0
  5
86C
  6
CONTINUOUS
 62
4
 10
-3.6928
 20
-19.4645
 30
0.0
 11
0.181
 21
-18.1944
 31
0.0
  0
LINE
  8
0
  5
86E
  6
CONTINUOUS
 62
4
 10
21.0991
 20
25.8327
 30
0.0
 11
21.1825
 21
25.8522
 31
0.0
  0
LINE
  8
0
  5
870
  6
CONTINUOUS
 62
4
 10
19.3267
 20
25.9693
 30
0.0
 11
19.2433
 21
25.9498
 31
0.0
  0
LINE
  8
0
  5
872
  6
CONTINUOUS
 62
4
 10
19.1182
 20
26.7493
 30
0.0
 11
19.0348
 21
26.7298
 31
0.0
  0
LINE
  8
0
  5
874
  6
CONTINUOUS
 62
4
 10
21.1825
 20
25.9498
 30
0.0
 11
21.0783
 21
25.9303
 31
0.0
  0
LINE
  8
0
  5
876
  6
CONTINUOUS
 62
4
 10
20.2025
 20
25.9498
 30
0.0
 11
20.0982
 21
25.9303
 31
0.0
  0
LINE
  8
0
  5
878
  6
CONTINUOUS
 62
4
 10
19.2433
 20
25.8327
 30
0.0
 11
19.3475
 21
25.8522
 31
0.0
  0
LINE
  8
0
  5
87A
  6
CONTINUOUS
 62
4
 10
20.8697
 20
26.6323
 30
0.0
 11
20.974
 21
26.6518
 31
0.0
  0
LINE
  8
0
  5
87C
  6
CONTINUOUS
 62
4
 10
19.994
 20
26.6323
 30
0.0
 11
20.0982
 21
26.6518
 31
0.0
  0
LINE
  8
0
  5
87E
  6
CONTINUOUS
 62
4
 10
20.0982
 20
25.8327
 30
0.0
 11
20.2233
 21
25.8522
 31
0.0
  0
LINE
  8
0
  5
880
  6
CONTINUOUS
 62
4
 10
-3.9378
 20
23.1854
 30
0.0
 11
-3.7729
 21
23.1854
 31
0.0
  0
LINE
  8
0
  5
882
  6
CONTINUOUS
 62
4
 10
-2.3923
 20
23.1854
 30
0.0
 11
-1.6504
 21
23.1854
 31
0.0
  0
LINE
  8
0
  5
884
  6
CONTINUOUS
 62
4
 10
-1.6504
 20
23.2846
 30
0.0
 11
-2.2274
 21
23.2846
 31
0.0
  0
LINE
  8
0
  5
886
  6
CONTINUOUS
 62
4
 10
-3.7729
 20
23.3045
 30
0.0
 11
-3.9378
 21
23.3045
 31
0.0
  0
LINE
  8
0
  5
888
  6
CONTINUOUS
 62
4
 10
-4.1027
 20
23.4434
 30
0.0
 11
-4.2263
 21
23.4434
 31
0.0
  0
LINE
  8
0
  5
88A
  6
CONTINUOUS
 62
4
 10
-3.8966
 20
23.6022
 30
0.0
 11
-3.7729
 21
23.6022
 31
0.0
  0
LINE
  8
0
  5
88C
  6
CONTINUOUS
 62
4
 10
-3.7729
 20
23.7213
 30
0.0
 11
-3.8966
 21
23.7213
 31
0.0
  0
LINE
  8
0
  5
88E
  6
CONTINUOUS
 62
4
 10
-3.6493
 20
23.9
 30
0.0
 11
-3.5257
 21
23.9
 31
0.0
  0
LINE
  8
0
  5
890
  6
CONTINUOUS
 62
4
 10
-2.3717
 20
23.9
 30
0.0
 11
-2.2686
 21
23.9
 31
0.0
  0
LINE
  8
0
  5
892
  6
CONTINUOUS
 62
4
 10
-3.8966
 20
23.9993
 30
0.0
 11
-3.7729
 21
23.9993
 31
0.0
  0
LINE
  8
0
  5
894
  6
CONTINUOUS
 62
4
 10
-2.0626
 20
24.0191
 30
0.0
 11
-1.9801
 21
24.0191
 31
0.0
  0
LINE
  8
0
  5
896
  6
CONTINUOUS
 62
4
 10
-1.9595
 20
24.1184
 30
0.0
 11
-2.0419
 21
24.1184
 31
0.0
  0
LINE
  8
0
  5
898
  6
CONTINUOUS
 62
4
 10
-3.7936
 20
24.1184
 30
0.0
 11
-3.8966
 21
24.1184
 31
0.0
  0
LINE
  8
0
  5
89A
  6
CONTINUOUS
 62
4
 10
-3.0061
 20
25.8251
 30
0.0
 11
-2.8831
 21
25.8042
 31
0.0
  0
LINE
  8
0
  5
89C
  6
CONTINUOUS
 62
4
 10
-2.5122
 20
25.6007
 30
0.0
 11
4.6639
 21
24.3343
 31
0.0
  0
LINE
  8
0
  5
89E
  6
CONTINUOUS
 62
4
 10
-2.8831
 20
25.9089
 30
0.0
 11
-2.9856
 21
25.9298
 31
0.0
  0
LINE
  8
0
  5
8A0
  6
CONTINUOUS
 62
4
 10
-2.1244
 20
25.8251
 30
0.0
 11
-2.0219
 21
25.8042
 31
0.0
  0
LINE
  8
0
  5
8A2
  6
CONTINUOUS
 62
4
 10
-2.1449
 20
26.2439
 30
0.0
 11
-2.0424
 21
26.223
 31
0.0
  0
LINE
  8
0
  5
8A4
  6
CONTINUOUS
 62
4
 10
-2.8831
 20
26.6837
 30
0.0
 11
-2.7806
 21
26.6628
 31
0.0
  0
LINE
  8
0
  5
8A6
  6
CONTINUOUS
 62
4
 10
-1.7758
 20
26.7675
 30
0.0
 11
-1.8784
 21
26.7884
 31
0.0
  0
LINE
  8
0
  5
8A8
  6
CONTINUOUS
 62
4
 10
-1.8373
 20
26.3277
 30
0.0
 11
-1.9194
 21
26.3487
 31
0.0
  0
LINE
  8
0
  5
8AA
  6
CONTINUOUS
 62
4
 10
-1.8784
 20
26.6628
 30
0.0
 11
-1.7963
 21
26.6418
 31
0.0
  0
LINE
  8
0
  5
8AC
  6
CONTINUOUS
 62
4
 10
-2.0424
 20
26.3487
 30
0.0
 11
-2.1244
 21
26.3696
 31
0.0
  0
LINE
  8
0
  5
8AE
  6
CONTINUOUS
 62
4
 10
19.5561
 20
26.1448
 30
0.0
 11
19.5144
 21
26.2228
 31
0.0
  0
LINE
  8
0
  5
8B0
  6
CONTINUOUS
 62
4
 10
19.3475
 20
26.5738
 30
0.0
 11
19.3684
 21
26.5348
 31
0.0
  0
LINE
  8
0
  5
8B2
  6
CONTINUOUS
 62
4
 10
19.7646
 20
26.0473
 30
0.0
 11
19.8063
 21
25.9693
 31
0.0
  0
LINE
  8
0
  5
8B4
  6
CONTINUOUS
 62
4
 10
20.4527
 20
26.4763
 30
0.0
 11
20.4318
 21
26.5348
 31
0.0
  0
LINE
  8
0
  5
8B6
  6
CONTINUOUS
 62
4
 10
20.6404
 20
26.0473
 30
0.0
 11
20.6612
 21
25.9888
 31
0.0
  0
LINE
  8
0
  5
8B8
  6
CONTINUOUS
 62
4
 10
21.3702
 20
26.5348
 30
0.0
 11
21.3493
 21
26.6128
 31
0.0
  0
LINE
  8
0
  5
8BA
  6
CONTINUOUS
 62
4
 10
-3.1738
 20
22.8846
 30
0.0
 11
-8.784
 21
21.3082
 31
0.0
  0
LINE
  8
0
  5
8BC
  6
CONTINUOUS
 62
4
 10
-3.6905
 20
23.3243
 30
0.0
 11
-3.7729
 21
23.3045
 31
0.0
  0
LINE
  8
0
  5
8BE
  6
CONTINUOUS
 62
4
 10
-3.8966
 20
24.1184
 30
0.0
 11
-3.979
 21
24.0985
 31
0.0
  0
LINE
  8
0
  5
8C0
  6
CONTINUOUS
 62
4
 10
-2.825
 20
23.3045
 30
0.0
 11
-2.9281
 21
23.2846
 31
0.0
  0
LINE
  8
0
  5
8C2
  6
CONTINUOUS
 62
4
 10
-3.7729
 20
23.1854
 30
0.0
 11
-3.6699
 21
23.2052
 31
0.0
  0
LINE
  8
0
  5
8C4
  6
CONTINUOUS
 62
4
 10
-2.1656
 20
23.9993
 30
0.0
 11
-2.0626
 21
24.0191
 31
0.0
  0
LINE
  8
0
  5
8C6
  6
CONTINUOUS
 62
4
 10
-3.0311
 20
23.9993
 30
0.0
 11
-2.9281
 21
24.0191
 31
0.0
  0
LINE
  8
0
  5
8C8
  6
CONTINUOUS
 62
4
 10
-2.9281
 20
23.1854
 30
0.0
 11
-2.8044
 21
23.2052
 31
0.0
  0
LINE
  8
0
  5
8CA
  6
CONTINUOUS
 62
4
 10
-2.9281
 20
24.1184
 30
0.0
 11
-3.0517
 21
24.0985
 31
0.0
  0
LINE
  8
0
  5
8CC
  6
CONTINUOUS
 62
4
 10
20.0982
 20
26.7493
 30
0.0
 11
19.9731
 21
26.7298
 31
0.0
  0
LINE
  8
0
  5
8CE
  6
CONTINUOUS
 62
4
 10
-2.0419
 20
24.1184
 30
0.0
 11
-2.1862
 21
24.0985
 31
0.0
  0
LINE
  8
0
  5
8D0
  6
CONTINUOUS
 62
4
 10
20.9948
 20
26.7493
 30
0.0
 11
20.8489
 21
26.7298
 31
0.0
  0
LINE
  8
0
  5
8D2
  6
CONTINUOUS
 62
4
 10
-4.0314
 20
25.8042
 30
0.0
 11
-3.9084
 21
25.8042
 31
0.0
  0
LINE
  8
0
  5
8D4
  6
CONTINUOUS
 62
4
 10
-2.0219
 20
25.8042
 30
0.0
 11
-1.9194
 21
25.8042
 31
0.0
  0
LINE
  8
0
  5
8D6
  6
CONTINUOUS
 62
4
 10
19.0765
 20
25.8327
 30
0.0
 11
19.2433
 21
25.8327
 31
0.0
  0
LINE
  8
0
  5
8D8
  6
CONTINUOUS
 62
4
 10
20.9323
 20
25.8327
 30
0.0
 11
21.0991
 21
25.8327
 31
0.0
  0
LINE
  8
0
  5
8DA
  6
CONTINUOUS
 62
4
 10
-1.9194
 20
25.9298
 30
0.0
 11
-2.0424
 21
25.9298
 31
0.0
  0
LINE
  8
0
  5
8DC
  6
CONTINUOUS
 62
4
 10
21.0783
 20
25.9303
 30
0.0
 11
20.9531
 21
25.9303
 31
0.0
  0
LINE
  8
0
  5
8DE
  6
CONTINUOUS
 62
4
 10
19.2433
 20
25.9498
 30
0.0
 11
19.0765
 21
25.9498
 31
0.0
  0
LINE
  8
0
  5
8E0
  6
CONTINUOUS
 62
4
 10
-2.1654
 20
26.0345
 30
0.0
 11
-2.2885
 21
26.0345
 31
0.0
  0
LINE
  8
0
  5
8E2
  6
CONTINUOUS
 62
4
 10
20.7446
 20
26.0473
 30
0.0
 11
20.6404
 21
26.0473
 31
0.0
  0
LINE
  8
0
  5
8E4
  6
CONTINUOUS
 62
4
 10
18.9097
 20
26.0863
 30
0.0
 11
18.7845
 21
26.0863
 31
0.0
  0
LINE
  8
0
  5
8E6
  6
CONTINUOUS
 62
4
 10
-2.0424
 20
26.223
 30
0.0
 11
-1.9194
 21
26.223
 31
0.0
  0
LINE
  8
0
  5
8E8
  6
CONTINUOUS
 62
4
 10
19.1182
 20
26.2423
 30
0.0
 11
19.2433
 21
26.2423
 31
0.0
  0
LINE
  8
0
  5
8EA
  6
CONTINUOUS
 62
4
 10
20.974
 20
26.2618
 30
0.0
 11
21.0574
 21
26.2618
 31
0.0
  0
LINE
  8
0
  5
8EC
  6
CONTINUOUS
 62
4
 10
21.0574
 20
26.3398
 30
0.0
 11
20.974
 21
26.3398
 31
0.0
  0
LINE
  8
0
  5
8EE
  6
CONTINUOUS
 62
4
 10
-1.9194
 20
26.3487
 30
0.0
 11
-2.0424
 21
26.3487
 31
0.0
  0
LINE
  8
0
  5
8F0
  6
CONTINUOUS
 62
4
 10
19.2433
 20
26.3593
 30
0.0
 11
19.1182
 21
26.3593
 31
0.0
  0
LINE
  8
0
  5
8F2
  6
CONTINUOUS
 62
4
 10
-4.2365
 20
26.3696
 30
0.0
 11
-4.0314
 21
26.3696
 31
0.0
  0
LINE
  8
0
  5
8F4
  6
CONTINUOUS
 62
4
 10
-3.9084
 20
26.3696
 30
0.0
 11
-3.5598
 21
26.3696
 31
0.0
  0
LINE
  8
0
  5
8F6
  6
CONTINUOUS
 62
4
 10
-3.4162
 20
26.4952
 30
0.0
 11
-3.9084
 21
26.4952
 31
0.0
  0
LINE
  8
0
  5
8F8
  6
CONTINUOUS
 62
4
 10
-4.0314
 20
26.4952
 30
0.0
 11
-4.2365
 21
26.4952
 31
0.0
  0
LINE
  8
0
  5
8FA
  6
CONTINUOUS
 62
4
 10
-1.7143
 20
26.5162
 30
0.0
 11
-1.5913
 21
26.5162
 31
0.0
  0
LINE
  8
0
  5
8FC
  6
CONTINUOUS
 62
4
 10
19.3684
 20
26.5348
 30
0.0
 11
19.4935
 21
26.5348
 31
0.0
  0
LINE
  8
0
  5
8FE
  6
CONTINUOUS
 62
4
 10
20.6612
 20
26.5348
 30
0.0
 11
20.7655
 21
26.5348
 31
0.0
  0
LINE
  8
0
  5
900
  6
CONTINUOUS
 62
4
 10
19.1182
 20
26.6323
 30
0.0
 11
19.2433
 21
26.6323
 31
0.0
  0
LINE
  8
0
  5
902
  6
CONTINUOUS
 62
4
 10
20.974
 20
26.6518
 30
0.0
 11
21.0574
 21
26.6518
 31
0.0
  0
LINE
  8
0
  5
904
  6
CONTINUOUS
 62
4
 10
-2.0424
 20
26.6628
 30
0.0
 11
-1.8784
 21
26.6628
 31
0.0
  0
LINE
  8
0
  5
906
  6
CONTINUOUS
 62
4
 10
21.0365
 20
26.7493
 30
0.0
 11
20.9948
 21
26.7493
 31
0.0
  0
LINE
  8
0
  5
908
  6
CONTINUOUS
 62
4
 10
19.2224
 20
26.7493
 30
0.0
 11
19.1182
 21
26.7493
 31
0.0
  0
LINE
  8
0
  5
90A
  6
CONTINUOUS
 62
4
 10
-2.7601
 20
26.7675
 30
0.0
 11
-2.8831
 21
26.7884
 31
0.0
  0
LINE
  8
0
  5
90C
  6
CONTINUOUS
 62
4
 10
19.4727
 20
26.5933
 30
0.0
 11
19.4101
 21
26.6713
 31
0.0
  0
LINE
  8
0
  5
90E
  6
CONTINUOUS
 62
4
 10
19.3892
 20
26.1838
 30
0.0
 11
19.431
 21
26.1253
 31
0.0
  0
LINE
  8
0
  5
910
  6
CONTINUOUS
 62
4
 10
19.9314
 20
25.9888
 30
0.0
 11
19.848
 21
26.1058
 31
0.0
  0
LINE
  8
0
  5
912
  6
CONTINUOUS
 62
4
 10
20.6612
 20
25.9888
 30
0.0
 11
20.7029
 21
25.9303
 31
0.0
  0
LINE
  8
0
  5
914
  6
CONTINUOUS
 62
4
 10
20.265
 20
26.5933
 30
0.0
 11
20.3484
 21
26.4763
 31
0.0
  0
LINE
  8
0
  5
916
  6
CONTINUOUS
 62
4
 10
18.8054
 20
26.0083
 30
0.0
 11
18.8679
 21
25.9108
 31
0.0
  0
LINE
  8
0
  5
918
  6
CONTINUOUS
 62
4
 10
20.4318
 20
26.5348
 30
0.0
 11
20.3901
 21
26.6128
 31
0.0
  0
LINE
  8
0
  5
91A
  6
CONTINUOUS
 62
4
 10
20.7655
 20
26.0083
 30
0.0
 11
20.7446
 21
26.0473
 31
0.0
  0
LINE
  8
0
  5
91C
  6
CONTINUOUS
 62
4
 10
21.2451
 20
26.2033
 30
0.0
 11
21.2868
 21
26.1253
 31
0.0
  0
LINE
  8
0
  5
91E
  6
CONTINUOUS
 62
4
 10
28.781
 20
9.287
 30
0.0
 11
28.4131
 21
10.3125
 31
0.0
  0
LINE
  8
0
  5
920
  6
CONTINUOUS
 62
4
 10
32.067
 20
-5.7757
 30
0.0
 11
32.067
 21
-4.595
 31
0.0
  0
LINE
  8
0
  5
922
  6
CONTINUOUS
 62
4
 10
32.067
 20
1.5073
 30
0.0
 11
32.067
 21
3.0821
 31
0.0
  0
LINE
  8
0
  5
924
  6
CONTINUOUS
 62
4
 10
-11.7861
 20
22.5094
 30
0.0
 11
-3.2333
 21
24.9126
 31
0.0
  0
LINE
  8
0
  5
926
  6
CONTINUOUS
 62
4
 10
-1.9194
 20
25.8042
 30
0.0
 11
-1.8373
 21
25.8251
 31
0.0
  0
LINE
  8
0
  5
928
  6
CONTINUOUS
 62
4
 10
-2.1244
 20
26.6418
 30
0.0
 11
-2.0424
 21
26.6628
 31
0.0
  0
LINE
  8
0
  5
92A
  6
CONTINUOUS
 62
4
 10
-2.7806
 20
25.9298
 30
0.0
 11
-2.8831
 21
25.9089
 31
0.0
  0
LINE
  8
0
  5
92C
  6
CONTINUOUS
 62
4
 10
-2.0424
 20
26.7884
 30
0.0
 11
-2.1449
 21
26.7675
 31
0.0
  0
LINE
  8
0
  5
92E
  6
CONTINUOUS
 62
4
 10
-2.9856
 20
26.6628
 30
0.0
 11
-2.8831
 21
26.6837
 31
0.0
  0
LINE
  8
0
  5
930
  6
CONTINUOUS
 62
4
 10
-10.3725
 20
24.3343
 30
0.0
 11
-3.1964
 21
25.6007
 31
0.0
  0
LINE
  8
0
  5
932
  6
CONTINUOUS
 62
4
 10
-2.8831
 20
25.8042
 30
0.0
 11
-2.7601
 21
25.8251
 31
0.0
  0
LINE
  8
0
  5
934
  6
CONTINUOUS
 62
4
 10
-2.8831
 20
26.7884
 30
0.0
 11
-3.0061
 21
26.7675
 31
0.0
  0
LINE
  8
0
  5
936
  6
CONTINUOUS
 62
4
 10
-1.8784
 20
26.7884
 30
0.0
 11
-2.0424
 21
26.7884
 31
0.0
  0
LINE
  8
0
  5
938
  6
CONTINUOUS
 62
4
 10
-3.9084
 20
26.7884
 30
0.0
 11
-4.0314
 21
26.7884
 31
0.0
  0
LINE
  8
0
  5
93A
  6
CONTINUOUS
 62
4
 10
21.1825
 20
26.7298
 30
0.0
 11
21.0365
 21
26.7493
 31
0.0
  0
LINE
  8
0
  5
93C
  6
CONTINUOUS
 62
4
 10
19.9731
 20
25.8522
 30
0.0
 11
20.0982
 21
25.8327
 31
0.0
  0
LINE
  8
0
  5
93E
  6
CONTINUOUS
 62
4
 10
21.0574
 20
26.2618
 30
0.0
 11
21.1825
 21
26.2423
 31
0.0
  0
LINE
  8
0
  5
940
  6
CONTINUOUS
 62
4
 10
20.2233
 20
26.7298
 30
0.0
 11
20.0982
 21
26.7493
 31
0.0
  0
LINE
  8
0
  5
942
  6
CONTINUOUS
 62
4
 10
18.9722
 20
25.8522
 30
0.0
 11
19.0765
 21
25.8327
 31
0.0
  0
LINE
  8
0
  5
944
  6
CONTINUOUS
 62
4
 10
20.0982
 20
25.9303
 30
0.0
 11
19.994
 21
25.9498
 31
0.0
  0
LINE
  8
0
  5
946
  6
CONTINUOUS
 62
4
 10
20.9531
 20
25.9303
 30
0.0
 11
20.8489
 21
25.9498
 31
0.0
  0
LINE
  8
0
  5
948
  6
CONTINUOUS
 62
4
 10
19.3475
 20
26.3398
 30
0.0
 11
19.2433
 21
26.3593
 31
0.0
  0
LINE
  8
0
  5
94A
  6
CONTINUOUS
 62
4
 10
19.3267
 20
26.7298
 30
0.0
 11
19.2224
 21
26.7493
 31
0.0
  0
LINE
  8
0
  5
94C
  6
CONTINUOUS
 62
4
 10
20.0982
 20
26.6518
 30
0.0
 11
20.2025
 21
26.6323
 31
0.0
  0
LINE
  8
0
  5
94E
  6
CONTINUOUS
 62
4
 10
21.0574
 20
26.6518
 30
0.0
 11
21.1617
 21
26.6323
 31
0.0
  0
LINE
  8
0
  5
950
  6
CONTINUOUS
 62
4
 10
19.0765
 20
25.9498
 30
0.0
 11
18.9931
 21
25.9693
 31
0.0
  0
LINE
  8
0
  5
952
  6
CONTINUOUS
 62
4
 10
19.0348
 20
26.2618
 30
0.0
 11
19.1182
 21
26.2423
 31
0.0
  0
LINE
  8
0
  5
954
  6
CONTINUOUS
 62
4
 10
20.8489
 20
25.8522
 30
0.0
 11
20.9323
 21
25.8327
 31
0.0
  0
LINE
  8
0
  5
956
  6
CONTINUOUS
 62
4
 10
19.2433
 20
26.2423
 30
0.0
 11
19.3267
 21
26.2228
 31
0.0
  0
LINE
  8
0
  5
958
  6
CONTINUOUS
 62
4
 10
20.8656
 20
25.4681
 30
0.0
 11
28.5537
 21
23.1261
 31
0.0
  0
LINE
  8
0
  5
95A
  6
CONTINUOUS
 62
4
 10
19.1182
 20
26.3593
 30
0.0
 11
19.0556
 21
26.3788
 31
0.0
  0
LINE
  8
0
  5
95C
  6
CONTINUOUS
 62
4
 10
19.2433
 20
26.6323
 30
0.0
 11
19.3058
 21
26.6128
 31
0.0
  0
LINE
  8
0
  5
95E
  6
CONTINUOUS
 62
4
 10
18.9514
 20
26.3008
 30
0.0
 11
19.0348
 21
26.2618
 31
0.0
  0
LINE
  8
0
  5
960
  6
CONTINUOUS
 62
4
 10
19.431
 20
26.3008
 30
0.0
 11
19.3475
 21
26.3398
 31
0.0
  0
LINE
  8
0
  5
962
  6
CONTINUOUS
 62
4
 10
18.8679
 20
25.9108
 30
0.0
 11
18.9722
 21
25.8522
 31
0.0
  0
LINE
  8
0
  5
964
  6
CONTINUOUS
 62
4
 10
19.8688
 20
25.9108
 30
0.0
 11
19.9731
 21
25.8522
 31
0.0
  0
LINE
  8
0
  5
966
  6
CONTINUOUS
 62
4
 10
19.0556
 20
26.3788
 30
0.0
 11
18.9931
 21
26.4178
 31
0.0
  0
LINE
  8
0
  5
968
  6
CONTINUOUS
 62
4
 10
19.3267
 20
26.2228
 30
0.0
 11
19.3892
 21
26.1838
 31
0.0
  0
LINE
  8
0
  5
96A
  6
CONTINUOUS
 62
4
 10
19.994
 20
25.9498
 30
0.0
 11
19.9314
 21
25.9888
 31
0.0
  0
LINE
  8
0
  5
96C
  6
CONTINUOUS
 62
4
 10
19.4101
 20
26.6713
 30
0.0
 11
19.3267
 21
26.7298
 31
0.0
  0
LINE
  8
0
  5
96E
  6
CONTINUOUS
 62
4
 10
18.9931
 20
25.9693
 30
0.0
 11
18.9305
 21
26.0278
 31
0.0
  0
LINE
  8
0
  5
970
  6
CONTINUOUS
 62
4
 10
18.8679
 20
26.3788
 30
0.0
 11
18.9514
 21
26.3008
 31
0.0
  0
LINE
  8
0
  5
972
  6
CONTINUOUS
 62
4
 10
19.5144
 20
26.2228
 30
0.0
 11
19.431
 21
26.3008
 31
0.0
  0
LINE
  8
0
  5
974
  6
CONTINUOUS
 62
4
 10
19.8063
 20
25.9693
 30
0.0
 11
19.8688
 21
25.9108
 31
0.0
  0
LINE
  8
0
  5
976
  6
CONTINUOUS
 62
4
 10
19.3058
 20
26.6128
 30
0.0
 11
19.3475
 21
26.5738
 31
0.0
  0
LINE
  8
0
  5
978
  6
CONTINUOUS
 62
4
 10
20.8072
 20
25.9693
 30
0.0
 11
20.7655
 21
26.0083
 31
0.0
  0
LINE
  8
0
  5
97A
  6
CONTINUOUS
 62
4
 10
20.3901
 20
26.6128
 30
0.0
 11
20.3276
 21
26.6713
 31
0.0
  0
LINE
  8
0
  5
97C
  6
CONTINUOUS
 62
4
 10
21.3702
 20
26.2033
 30
0.0
 11
21.3285
 21
26.2618
 31
0.0
  0
LINE
  8
0
  5
97E
  6
CONTINUOUS
 62
4
 10
21.2242
 20
26.5933
 30
0.0
 11
21.2659
 21
26.5348
 31
0.0
  0
LINE
  8
0
  5
980
  6
CONTINUOUS
 62
4
 10
31.4813
 20
24.2921
 30
0.0
 11
20.5538
 21
27.6209
 31
0.0
  0
LINE
  8
0
  5
982
  6
CONTINUOUS
 62
4
 10
21.3285
 20
26.2618
 30
0.0
 11
21.2242
 21
26.3008
 31
0.0
  0
LINE
  8
0
  5
984
  6
CONTINUOUS
 62
4
 10
20.7655
 20
25.8912
 30
0.0
 11
20.8489
 21
25.8522
 31
0.0
  0
LINE
  8
0
  5
986
  6
CONTINUOUS
 62
4
 10
20.8489
 20
25.9498
 30
0.0
 11
20.8072
 21
25.9693
 31
0.0
  0
LINE
  8
0
  5
988
  6
CONTINUOUS
 62
4
 10
21.2659
 20
26.6908
 30
0.0
 11
21.1825
 21
26.7298
 31
0.0
  0
LINE
  8
0
  5
98A
  6
CONTINUOUS
 62
4
 10
20.3276
 20
26.6713
 30
0.0
 11
20.2233
 21
26.7298
 31
0.0
  0
LINE
  8
0
  5
98C
  6
CONTINUOUS
 62
4
 10
20.7029
 20
25.9303
 30
0.0
 11
20.7655
 21
25.8912
 31
0.0
  0
LINE
  8
0
  5
98E
  6
CONTINUOUS
 62
4
 10
20.2025
 20
26.6323
 30
0.0
 11
20.265
 21
26.5933
 31
0.0
  0
LINE
  8
0
  5
990
  6
CONTINUOUS
 62
4
 10
21.1825
 20
26.2423
 30
0.0
 11
21.2451
 21
26.2033
 31
0.0
  0
LINE
  8
0
  5
992
  6
CONTINUOUS
 62
4
 10
21.1617
 20
26.6323
 30
0.0
 11
21.2242
 21
26.5933
 31
0.0
  0
LINE
  8
0
  5
994
  6
CONTINUOUS
 62
4
 10
21.3493
 20
26.6128
 30
0.0
 11
21.2659
 21
26.6908
 31
0.0
  0
ARC
  8
0
  5
996
  6
CONTINUOUS
 62
4
 10
-12.265594
 20
20.476201
 30
0.0
 40
0.552587
 50
159.3779111111
 51
253.3173388889
  0
ARC
  8
0
  5
998
  6
CONTINUOUS
 62
4
 10
-35.833365
 20
31.324944
 30
0.0
 40
23.622047
 50
331.4778833333
 51
345.2403916667
  0
ARC
  8
0
  5
99A
  6
CONTINUOUS
 62
4
 10
-13.275357
 20
57.182175
 30
0.0
 40
31.496063
 50
271.4106083333
 51
288.60535
  0
ARC
  8
0
  5
99C
  6
CONTINUOUS
 62
4
 10
-2.854274
 20
27.460079
 30
0.0
 40
0.393701
 50
198.9634527778
 51
341.03655
  0
ARC
  8
0
  5
99E
  6
CONTINUOUS
 62
4
 10
7.566809
 20
57.182175
 30
0.0
 40
31.496063
 50
251.39465
 51
268.5893916667
  0
ARC
  8
0
  5
9A0
  6
CONTINUOUS
 62
4
 10
30.124816
 20
31.324944
 30
0.0
 40
23.622047
 50
194.7596111111
 51
208.5221194444
  0
ARC
  8
0
  5
9A2
  6
CONTINUOUS
 62
4
 10
6.557045
 20
20.476201
 30
0.0
 40
0.552587
 50
286.6826611111
 51
20.6220888889
  0
ARC
  8
0
  5
9A4
  6
CONTINUOUS
 62
4
 10
-14.950614
 20
19.67303
 30
0.0
 40
0.393701
 50
313.8730722222
 51
108.9181277778
  0
ARC
  8
0
  5
9A6
  6
CONTINUOUS
 62
4
 10
9.242065
 20
19.67303
 30
0.0
 40
0.393701
 50
71.081875
 51
226.1269305556
  0
ARC
  8
0
  5
9A8
  6
CONTINUOUS
 62
4
 10
7.185096
 20
25.688426
 30
0.0
 40
0.393701
 50
178.9474916667
 51
284.2821388889
  0
ARC
  8
0
  5
9AA
  6
CONTINUOUS
 62
4
 10
-12.893644
 20
25.688426
 30
0.0
 40
0.393701
 50
255.7178611111
 51
1.0525083333
  0
ARC
  8
0
  5
9AC
  6
CONTINUOUS
 62
4
 10
-2.854274
 20
23.66213
 30
0.0
 40
1.968504
 50
79.9920194444
 51
100.0079777778
  0
ARC
  8
0
  5
9AE
  6
CONTINUOUS
 62
4
 10
4.321832
 20
22.395759
 30
0.0
 40
1.968504
 50
20.6220888889
 51
79.9920194444
  0
ARC
  8
0
  5
9B0
  6
CONTINUOUS
 62
4
 10
-10.03038
 20
22.395759
 30
0.0
 40
1.968504
 50
100.0079805556
 51
159.3779111111
  0
ARC
  8
0
  5
9B2
  6
CONTINUOUS
 62
4
 10
-32.353916
 20
9.72781
 30
0.0
 40
23.622047
 50
19.960875
 51
30.7308194444
  0
ARC
  8
0
  5
9B4
  6
CONTINUOUS
 62
4
 10
-15.315158
 20
-5.600118
 30
0.0
 40
23.622047
 50
59.1175194444
 51
76.0905472222
  0
ARC
  8
0
  5
9B6
  6
CONTINUOUS
 62
4
 10
-2.854274
 20
14.467953
 30
0.0
 40
0.393701
 50
31.35995
 51
148.64005
  0
ARC
  8
0
  5
9B8
  6
CONTINUOUS
 62
4
 10
9.60661
 20
-5.600118
 30
0.0
 40
23.622047
 50
103.9094527778
 51
120.8824805556
  0
ARC
  8
0
  5
9BA
  6
CONTINUOUS
 62
4
 10
26.645368
 20
9.72781
 30
0.0
 40
23.622047
 50
149.2691805556
 51
160.039125
  0
ARC
  8
0
  5
9BC
  6
CONTINUOUS
 62
4
 10
-2.854274
 20
25.019134
 30
0.0
 40
0.393701
 50
195.694925
 51
344.3050777778
  0
ARC
  8
0
  5
9BE
  6
CONTINUOUS
 62
4
 10
-12.018106
 20
22.191294
 30
0.0
 40
0.393701
 50
265.5087416667
 51
53.8916916667
  0
ARC
  8
0
  5
9C0
  6
CONTINUOUS
 62
4
 10
6.309558
 20
22.191294
 30
0.0
 40
0.393701
 50
126.1083083333
 51
274.4912583333
  0
ARC
  8
0
  5
9C2
  6
CONTINUOUS
 62
4
 10
-10.019628
 20
17.420709
 30
0.0
 40
0.393701
 50
346.5680166667
 51
109.4834027778
  0
ARC
  8
0
  5
9C4
  6
CONTINUOUS
 62
4
 10
4.31108
 20
17.420709
 30
0.0
 40
0.393701
 50
70.5165972222
 51
193.4319833333
  0
ARC
  8
0
  5
9C6
  6
CONTINUOUS
 62
4
 10
-2.854274
 20
21.747549
 30
0.0
 40
1.181102
 50
74.305075
 51
105.6949222222
  0
ARC
  8
0
  5
9C8
  6
CONTINUOUS
 62
4
 10
-7.644619
 20
19.988175
 30
0.0
 40
1.181102
 50
203.9334083333
 51
247.7444138889
  0
ARC
  8
0
  5
9CA
  6
CONTINUOUS
 62
4
 10
-2.854274
 20
18.027848
 30
0.0
 40
1.181102
 50
247.7444138889
 51
292.2555833333
  0
ARC
  8
0
  5
9CC
  6
CONTINUOUS
 62
4
 10
1.936071
 20
19.988175
 30
0.0
 40
1.181102
 50
292.2555861111
 51
336.0665916667
  0
ARC
  8
0
  5
9CE
  6
CONTINUOUS
 62
4
 10
-8.624258
 20
20.739654
 30
0.0
 40
0.590551
 50
105.694925
 51
203.9334083333
  0
ARC
  8
0
  5
9D0
  6
CONTINUOUS
 62
4
 10
2.915709
 20
20.739654
 30
0.0
 40
0.590551
 50
336.0665916667
 51
74.305075
  0
ARC
  8
0
  5
9D2
  6
CONTINUOUS
 62
4
 10
9.080032
 20
-13.297978
 30
0.0
 40
31.496063
 50
70.1168611111
 51
86.1543555556
  0
ARC
  8
0
  5
9D4
  6
CONTINUOUS
 62
4
 10
-8.316174
 20
13.539117
 30
0.0
 40
19.685039
 50
14.8663833333
 51
30.6478472222
  0
ARC
  8
0
  5
9D6
  6
CONTINUOUS
 62
4
 10
20.177222
 20
27.73567
 30
0.0
 40
0.393701
 50
196.9426111111
 51
343.0573888889
  0
ARC
  8
0
  5
9D8
  6
CONTINUOUS
 62
4
 10
48.670618
 20
13.539117
 30
0.0
 40
19.685039
 50
149.3521527778
 51
165.1336166667
  0
ARC
  8
0
  5
9DA
  6
CONTINUOUS
 62
4
 10
31.274412
 20
-13.297978
 30
0.0
 40
31.496063
 50
93.8456416667
 51
109.8831361111
  0
ARC
  8
0
  5
9DC
  6
CONTINUOUS
 62
4
 10
20.177222
 20
16.239607
 30
0.0
 40
0.393701
 50
11.8643916667
 51
168.1356111111
  0
ARC
  8
0
  5
9DE
  6
CONTINUOUS
 62
4
 10
20.177222
 20
23.208467
 30
0.0
 40
2.362205
 50
73.0573888889
 51
106.9426111111
  0
ARC
  8
0
  5
9E0
  6
CONTINUOUS
 62
4
 10
26.234548
 20
21.937399
 30
0.0
 40
2.362205
 50
281.8643916667
 51
338.6094444444
  0
ARC
  8
0
  5
9E2
  6
CONTINUOUS
 62
4
 10
20.177222
 20
20.664852
 30
0.0
 40
2.362205
 50
258.1356083333
 51
281.8643888889
  0
ARC
  8
0
  5
9E4
  6
CONTINUOUS
 62
4
 10
14.119896
 20
21.937399
 30
0.0
 40
2.362205
 50
201.3905583333
 51
258.1356111111
  0
ARC
  8
0
  5
9E6
  6
CONTINUOUS
 62
4
 10
28.381598
 20
22.561158
 30
0.0
 40
0.590551
 50
338.6094416667
 51
73.0573888889
  0
ARC
  8
0
  5
9E8
  6
CONTINUOUS
 62
4
 10
11.972846
 20
22.561158
 30
0.0
 40
0.590551
 50
106.9426111111
 51
201.3905583333
  0
ARC
  8
0
  5
9EA
  6
CONTINUOUS
 62
4
 10
31.701986
 20
23.966056
 30
0.0
 40
0.393701
 50
124.1017166667
 51
274.8468861111
  0
ARC
  8
0
  5
9EC
  6
CONTINUOUS
 62
4
 10
29.547301
 20
18.208111
 30
0.0
 40
0.393701
 50
75.7065833333
 51
191.8643888889
  0
ARC
  8
0
  5
9EE
  6
CONTINUOUS
 62
4
 10
10.807143
 20
18.208111
 30
0.0
 40
0.393701
 50
348.1356083333
 51
104.2934138889
  0
ARC
  8
0
  5
9F0
  6
CONTINUOUS
 62
4
 10
8.652458
 20
23.966056
 30
0.0
 40
0.393701
 50
265.1531138889
 51
55.8982833333
  0
ARC
  8
0
  5
9F2
  6
CONTINUOUS
 62
4
 10
-9.744038
 20
-8.169842
 30
0.0
 40
0.393701
 50
17.2414583333
 51
162.7585388889
  0
ARC
  8
0
  5
9F4
  6
CONTINUOUS
 62
4
 10
5.49328
 20
0.580707
 30
0.0
 40
11.811024
 50
198.8205833333
 51
213.0787666667
  0
ARC
  8
0
  5
9F6
  6
CONTINUOUS
 62
4
 10
0.691415
 20
7.007699
 30
0.0
 40
11.811024
 50
209.838175
 51
234.7092027778
  0
ARC
  8
0
  5
9F8
  6
CONTINUOUS
 62
4
 10
-9.744038
 20
1.475827
 30
0.0
 40
0.393701
 50
241.1168
 51
298.8832027778
  0
ARC
  8
0
  5
9FA
  6
CONTINUOUS
 62
4
 10
-20.179491
 20
7.007699
 30
0.0
 40
11.811024
 50
305.2907972222
 51
330.161825
  0
ARC
  8
0
  5
9FC
  6
CONTINUOUS
 62
4
 10
-24.981356
 20
0.580707
 30
0.0
 40
11.811024
 50
326.9212333333
 51
341.1794166667
  0
ARC
  8
0
  5
9FE
  6
CONTINUOUS
 62
4
 10
-5.80703
 20
-2.854882
 30
0.0
 40
0.393701
 50
145.6641777778
 51
287.8656111111
  0
ARC
  8
0
  5
A00
  6
CONTINUOUS
 62
4
 10
-13.681046
 20
-2.854882
 30
0.0
 40
0.393701
 50
252.1343916667
 51
34.335825
  0
ARC
  8
0
  5
A02
  6
CONTINUOUS
 62
4
 10
-4.403784
 20
-6.25935
 30
0.0
 40
0.393701
 50
89.9477361111
 51
235.1324222222
  0
ARC
  8
0
  5
A04
  6
CONTINUOUS
 62
4
 10
-15.084292
 20
-6.25935
 30
0.0
 40
0.393701
 50
304.8675777778
 51
90.0522638889
  0
ARC
  8
0
  5
A06
  6
CONTINUOUS
 62
4
 10
-8.128225
 20
-4.538148
 30
0.0
 40
1.181102
 50
23.1577361111
 51
46.4899
  0
ARC
  8
0
  5
A08
  6
CONTINUOUS
 62
4
 10
-11.359851
 20
-4.538148
 30
0.0
 40
1.181102
 50
133.5101
 51
156.8422638889
  0
ARC
  8
0
  5
A0A
  6
CONTINUOUS
 62
4
 10
-9.744038
 20
-5.284271
 30
0.0
 40
1.181102
 50
252.7585416667
 51
287.2414611111
  0
ARC
  8
0
  5
A0C
  6
CONTINUOUS
 62
4
 10
-7.235318
 20
-5.124039
 30
0.0
 40
0.590551
 50
287.2414583333
 51
23.1577333333
  0
ARC
  8
0
  5
A0E
  6
CONTINUOUS
 62
4
 10
-12.252758
 20
-5.124039
 30
0.0
 40
0.590551
 50
156.8422638889
 51
252.7585388889
  0
ARC
  8
0
  5
A10
  6
CONTINUOUS
 62
4
 10
-9.744038
 20
-2.189988
 30
0.0
 40
0.590551
 50
46.4899
 51
133.5101
  0
ARC
  8
0
  5
A12
  6
CONTINUOUS
 62
4
 10
1.082734
 20
15.530945
 30
0.0
 40
0.393701
 50
196.9426111111
 51
343.0573888889
  0
ARC
  8
0
  5
A14
  6
CONTINUOUS
 62
4
 10
33.76514
 20
0.698763
 30
0.0
 40
23.622047
 50
153.1599194444
 51
166.2638305556
  0
ARC
  8
0
  5
A16
  6
CONTINUOUS
 62
4
 10
11.88693
 20
-25.550103
 30
0.0
 40
31.496063
 50
92.8242027778
 51
109.3455833333
  0
ARC
  8
0
  5
A18
  6
CONTINUOUS
 62
4
 10
1.082734
 20
4.034882
 30
0.0
 40
0.393701
 50
19.7036833333
 51
160.2963194444
  0
ARC
  8
0
  5
A1A
  6
CONTINUOUS
 62
4
 10
-9.721463
 20
-25.550103
 30
0.0
 40
31.496063
 50
70.6544194444
 51
87.1758
  0
ARC
  8
0
  5
A1C
  6
CONTINUOUS
 62
4
 10
-31.599673
 20
0.698763
 30
0.0
 40
23.622047
 50
13.7361722222
 51
26.8400833333
  0
ARC
  8
0
  5
A1E
  6
CONTINUOUS
 62
4
 10
8.236866
 20
8.645992
 30
0.0
 40
1.181102
 50
281.0848916667
 51
340.6629361111
  0
ARC
  8
0
  5
A20
  6
CONTINUOUS
 62
4
 10
1.082734
 20
7.244367
 30
0.0
 40
1.181102
 50
258.9151083333
 51
281.0848916667
  0
ARC
  8
0
  5
A22
  6
CONTINUOUS
 62
4
 10
-6.071398
 20
8.645992
 30
0.0
 40
1.181102
 50
199.3370638889
 51
258.9151083333
  0
ARC
  8
0
  5
A24
  6
CONTINUOUS
 62
4
 10
1.082734
 20
12.238435
 30
0.0
 40
1.181102
 50
73.0573888889
 51
106.9426111111
  0
ARC
  8
0
  5
A26
  6
CONTINUOUS
 62
4
 10
9.445971
 20
10.308039
 30
0.0
 40
0.590551
 50
340.6629361111
 51
73.0573888889
  0
ARC
  8
0
  5
A28
  6
CONTINUOUS
 62
4
 10
-7.280504
 20
10.308039
 30
0.0
 40
0.590551
 50
106.9426111111
 51
199.3370638889
  0
ARC
  8
0
  5
A2A
  6
CONTINUOUS
 62
4
 10
-10.446603
 20
11.750492
 30
0.0
 40
0.393701
 50
258.8962388889
 51
57.6105194444
  0
ARC
  8
0
  5
A2C
  6
CONTINUOUS
 62
4
 10
-8.562936
 20
5.924646
 30
0.0
 40
0.393701
 50
357.5339
 51
103.2587
  0
ARC
  8
0
  5
A2E
  6
CONTINUOUS
 62
4
 10
10.728403
 20
5.924646
 30
0.0
 40
0.393701
 50
76.7413
 51
182.4661
  0
ARC
  8
0
  5
A30
  6
CONTINUOUS
 62
4
 10
12.61207
 20
11.750492
 30
0.0
 40
0.393701
 50
122.3894805556
 51
281.1037611111
  0
ARC
  8
0
  5
A32
  6
CONTINUOUS
 62
4
 10
-19.290749
 20
-12.4528
 30
0.0
 40
11.811024
 50
334.8690166667
 51
347.29035
  0
ARC
  8
0
  5
A34
  6
CONTINUOUS
 62
4
 10
-17.964877
 20
-2.732541
 30
0.0
 40
15.748031
 50
312.1645527778
 51
330.5158333333
  0
ARC
  8
0
  5
A36
  6
CONTINUOUS
 62
4
 10
-4.066873
 20
-10.138346
 30
0.0
 40
0.393701
 50
241.2320472222
 51
298.7679527778
  0
ARC
  8
0
  5
A38
  6
CONTINUOUS
 62
4
 10
9.831132
 20
-2.732541
 30
0.0
 40
15.748031
 50
209.4841694444
 51
227.83545
  0
ARC
  8
0
  5
A3A
  6
CONTINUOUS
 62
4
 10
11.157004
 20
-12.4528
 30
0.0
 40
11.811024
 50
192.7096527778
 51
205.1309861111
  0
ARC
  8
0
  5
A3C
  6
CONTINUOUS
 62
4
 10
-4.066873
 20
-19.587165
 30
0.0
 40
0.393701
 50
18.1527055556
 51
161.8472944444
  0
ARC
  8
0
  5
A3E
  6
CONTINUOUS
 62
4
 10
-8.510173
 20
-17.852646
 30
0.0
 40
0.393701
 50
299.7609111111
 51
102.8549722222
  0
ARC
  8
0
  5
A40
  6
CONTINUOUS
 62
4
 10
0.376428
 20
-17.852646
 30
0.0
 40
0.393701
 50
77.1450277778
 51
240.2390888889
  0
ARC
  8
0
  5
A42
  6
CONTINUOUS
 62
4
 10
-7.68892
 20
-14.665905
 30
0.0
 40
0.393701
 50
258.2453222222
 51
41.4483361111
  0
ARC
  8
0
  5
A44
  6
CONTINUOUS
 62
4
 10
-0.444825
 20
-14.665905
 30
0.0
 40
0.393701
 50
138.5516638889
 51
281.7546777778
  0
ARC
  8
0
  5
A46
  6
CONTINUOUS
 62
4
 10
-4.066873
 20
-16.686913
 30
0.0
 40
1.181102
 50
251.8472944444
 51
288.1527055556
  0
ARC
  8
0
  5
A48
  6
CONTINUOUS
 62
4
 10
-5.200843
 20
-16.092671
 30
0.0
 40
1.181102
 50
137.9373277778
 51
163.3584333333
  0
ARC
  8
0
  5
A4A
  6
CONTINUOUS
 62
4
 10
-2.932902
 20
-16.092671
 30
0.0
 40
1.181102
 50
16.6415666667
 51
42.0626722222
  0
ARC
  8
0
  5
A4C
  6
CONTINUOUS
 62
4
 10
-2.141808
 20
-16.677227
 30
0.0
 40
0.590551
 50
288.1527055556
 51
16.6415666667
  0
ARC
  8
0
  5
A4E
  6
CONTINUOUS
 62
4
 10
-5.991937
 20
-16.677227
 30
0.0
 40
0.590551
 50
163.3584333333
 51
251.8472944444
  0
ARC
  8
0
  5
A50
  6
CONTINUOUS
 62
4
 10
-4.066873
 20
-13.954541
 30
0.0
 40
0.590551
 50
42.0626722222
 51
137.9373277778
  0
ARC
  8
0
  5
A52
  6
CONTINUOUS
 62
4
 10
14.665411
 20
0.262427
 30
0.0
 40
18.440143
 50
212.025425
 51
270.0
  0
ARC
  8
0
  5
A54
  6
CONTINUOUS
 62
4
 10
14.665411
 20
0.262427
 30
0.0
 40
20.408647
 50
208.6296527778
 51
270.0
  0
ARC
  8
0
  5
A56
  6
CONTINUOUS
 62
4
 10
21.555175
 20
-9.516299
 30
0.0
 40
10.629921
 50
270.0
 51
360.0
  0
ARC
  8
0
  5
A58
  6
CONTINUOUS
 62
4
 10
21.555175
 20
-9.516299
 30
0.0
 40
8.661417
 50
270.0
 51
360.0
  0
ARC
  8
0
  5
A5A
  6
CONTINUOUS
 62
4
 10
-8.445703
 20
18.394396
 30
0.0
 40
23.622047
 50
333.7965472222
 51
344.6728861111
  0
ARC
  8
0
  5
A5C
  6
CONTINUOUS
 62
4
 10
10.414444
 20
35.807965
 30
0.0
 40
23.622047
 50
280.7596777778
 51
298.7339972222
  0
ARC
  8
0
  5
A5E
  6
CONTINUOUS
 62
4
 10
22.11423
 20
15.286851
 30
0.0
 40
0.393701
 50
209.2114666667
 51
330.7885333333
  0
ARC
  8
0
  5
A60
  6
CONTINUOUS
 62
4
 10
33.814016
 20
35.807965
 30
0.0
 40
23.622047
 50
241.2660027778
 51
259.2403222222
  0
ARC
  8
0
  5
A62
  6
CONTINUOUS
 62
4
 10
52.674163
 20
18.394396
 30
0.0
 40
23.622047
 50
195.3271138889
 51
206.2034527778
  0
ARC
  8
0
  5
A64
  6
CONTINUOUS
 62
4
 10
22.11423
 20
4.73567
 30
0.0
 40
0.393701
 50
15.51205
 51
164.4879527778
  0
ARC
  8
0
  5
A66
  6
CONTINUOUS
 62
4
 10
12.826031
 20
7.577806
 30
0.0
 40
0.393701
 50
304.2027555556
 51
101.32055
  0
ARC
  8
0
  5
A68
  6
CONTINUOUS
 62
4
 10
31.402429
 20
7.577806
 30
0.0
 40
0.393701
 50
78.67945
 51
235.7972444444
  0
ARC
  8
0
  5
A6A
  6
CONTINUOUS
 62
4
 10
14.437064
 20
12.530945
 30
0.0
 40
0.393701
 50
255.1503583333
 51
10.2822055556
  0
ARC
  8
0
  5
A6C
  6
CONTINUOUS
 62
4
 10
29.791395
 20
12.530945
 30
0.0
 40
0.393701
 50
169.7177944444
 51
284.8496416667
  0
ARC
  8
0
  5
A6E
  6
CONTINUOUS
 62
4
 10
27.30134
 20
9.913632
 30
0.0
 40
1.181102
 50
19.7350277778
 51
70.0900722222
  0
ARC
  8
0
  5
A70
  6
CONTINUOUS
 62
4
 10
16.92712
 20
9.913632
 30
0.0
 40
1.181102
 50
109.9099277778
 51
160.2649722222
  0
ARC
  8
0
  5
A72
  6
CONTINUOUS
 62
4
 10
22.11423
 20
11.792357
 30
0.0
 40
1.181102
 50
70.0900722222
 51
109.909925
  0
ARC
  8
0
  5
A74
  6
CONTINUOUS
 62
4
 10
22.11423
 20
8.00434
 30
0.0
 40
1.181102
 50
254.48795
 51
285.5120472222
  0
ARC
  8
0
  5
A76
  6
CONTINUOUS
 62
4
 10
28.225095
 20
9.087541
 30
0.0
 40
0.590551
 50
285.51205
 51
19.7350305556
  0
ARC
  8
0
  5
A78
  6
CONTINUOUS
 62
4
 10
16.003364
 20
9.087541
 30
0.0
 40
0.590551
 50
160.2649722222
 51
254.4879527778
  0
ARC
  8
0
  5
A7A
  6
CONTINUOUS
 62
4
 10
24.861474
 20
-2.903629
 30
0.0
 40
1.181102
 50
180.0
 51
265.9721138889
  0
ARC
  8
0
  5
A7C
  6
CONTINUOUS
 62
4
 10
24.861474
 20
-0.184086
 30
0.0
 40
1.181102
 50
94.0278861111
 51
180.0
  0
ARC
  8
0
  5
A7E
  6
CONTINUOUS
 62
4
 10
25.098482
 20
-8.335196
 30
0.0
 40
11.456693
 50
90.0
 51
119.0502888889
  0
ARC
  8
0
  5
A80
  6
CONTINUOUS
 62
4
 10
8.486808
 20
-4.952223
 30
0.0
 40
0.43307
 50
119.0502888889
 51
268.0
  0
ARC
  8
0
  5
A82
  6
CONTINUOUS
 62
4
 10
21.318167
 20
-1.056745
 30
0.0
 40
0.787402
 50
0.0
 51
119.0502888889
  0
ARC
  8
0
  5
A84
  6
CONTINUOUS
 62
4
 10
21.318167
 20
-3.824541
 30
0.0
 40
0.787402
 50
268.0
 51
360.0
  0
ARC
  8
0
  5
A86
  6
CONTINUOUS
 62
4
 10
17.644618
 20
-3.696258
 30
0.0
 40
0.787402
 50
180.0
 51
268.0
  0
ARC
  8
0
  5
A88
  6
CONTINUOUS
 62
4
 10
17.644618
 20
-3.097243
 30
0.0
 40
0.787402
 50
119.0502888889
 51
180.0
  0
ARC
  8
0
  5
A8A
  6
CONTINUOUS
 62
4
 10
25.098482
 20
-8.335196
 30
0.0
 40
11.811024
 50
90.0
 51
119.0502888889
  0
ARC
  8
0
  5
A8C
  6
CONTINUOUS
 62
4
 10
8.486808
 20
-4.952223
 30
0.0
 40
0.787402
 50
119.0502888889
 51
268.0000027778
  0
ARC
  8
0
  5
A8E
  6
CONTINUOUS
 62
4
 10
2.669742
 20
0.383801
 30
0.0
 40
1.181102
 50
0.0
 51
87.1375944444
  0
ARC
  8
0
  5
A90
  6
CONTINUOUS
 62
4
 10
2.669742
 20
-2.655694
 30
0.0
 40
1.181102
 50
271.4320972222
 51
360.0
  0
ARC
  8
0
  5
A92
  6
CONTINUOUS
 62
4
 10
3.063442
 20
1.901024
 30
0.0
 40
7.519685
 50
270.0
 51
303.8594833333
  0
ARC
  8
0
  5
A94
  6
CONTINUOUS
 62
4
 10
14.874466
 20
1.528728
 30
0.0
 40
0.629921
 50
303.8594833333
 51
5.0888874903E-14
  0
ARC
  8
0
  5
A96
  6
CONTINUOUS
 62
4
 10
15.465017
 20
2.70983
 30
0.0
 40
0.03937
 50
0.0
 51
87.75
  0
ARC
  8
0
  5
A98
  6
CONTINUOUS
 62
4
 10
6.606749
 20
-1.144247
 30
0.0
 40
0.787402
 50
180.0
 51
303.8594833333
  0
ARC
  8
0
  5
A9A
  6
CONTINUOUS
 62
4
 10
6.606749
 20
1.08785
 30
0.0
 40
0.787402
 50
87.75
 51
180.0
  0
ARC
  8
0
  5
A9C
  6
CONTINUOUS
 62
4
 10
8.1419
 20
1.027534
 30
0.0
 40
0.787402
 50
26.2513583333
 51
87.75
  0
ARC
  8
0
  5
A9E
  6
CONTINUOUS
 62
4
 10
8.564996
 20
0.169631
 30
0.0
 40
0.787402
 50
303.8594833333
 51
26.2513583333
  0
ARC
  8
0
  5
AA0
  6
CONTINUOUS
 62
4
 10
3.063442
 20
1.901024
 30
0.0
 40
7.874016
 50
270.0
 51
303.8594833333
  0
ARC
  8
0
  5
AA2
  6
CONTINUOUS
 62
4
 10
14.874466
 20
1.528728
 30
0.0
 40
0.984252
 50
303.8594833333
 51
5.0888874903E-14
  0
ARC
  8
0
  5
AA4
  6
CONTINUOUS
 62
4
 10
15.465017
 20
2.70983
 30
0.0
 40
0.393701
 50
0.0
 51
87.75
  0
ARC
  8
0
  5
AA6
  6
CONTINUOUS
 62
4
 10
3.019742
 20
-26.775339
 30
0.0
 40
18.440143
 50
90.0
 51
147.974575
  0
ARC
  8
0
  5
AA8
  6
CONTINUOUS
 62
4
 10
3.019742
 20
-26.775339
 30
0.0
 40
20.408647
 50
90.0
 51
151.3703472222
  0
ARC
  8
0
  5
AAA
  6
CONTINUOUS
 62
4
 10
9.909505
 20
-16.996614
 30
0.0
 40
10.629921
 50
0.0
 51
90.0
  0
ARC
  8
0
  5
AAC
  6
CONTINUOUS
 62
4
 10
9.909505
 20
-16.996614
 30
0.0
 40
8.661417
 50
0.0
 51
90.0
  0
POLYLINE
  8
1
  5
AAE
  6
CONTINUOUS
 62
4
 10
0.0
 20
0.0
 30
0.0
 66
1
 70
8
  0
VERTEX
  8
1
  5
AAF
  6
CONTINUOUS
 62
4
 70
32
 10
-33.6278
 20
27.8942
 30
50.0
  0
VERTEX
  8
1
  5
AB0
  6
CONTINUOUS
 62
4
 70
32
 10
-33.6278
 20
-20.4751
 30
50.0
  0
VERTEX
  8
1
  5
AB1
  6
CONTINUOUS
 62
4
 70
32
 10
34.3323
 20
-20.4751
 30
50.0
  0
VERTEX
  8
1
  5
AB2
  6
CONTINUOUS
 62
4
 70
32
 10
34.3323
 20
27.8942
 30
50.0
  0
VERTEX
  8
1
  5
AB3
  6
CONTINUOUS
 62
4
 70
32
 10
-33.5891
 20
27.8813
 30
25.0
  0
SEQEND
  8
1
  5
AB4
  0
INSERT
  8
1
  5
AB6
  6
CONTINUOUS
 62
1
  2
*O1
 10
-19.9309
 20
17.7932
 30
0.0
 41
1.0
 42
1.0
 43
1.0
 70
1
 71
1
  0
INSERT
  8
0
  5
AB8
  6
CONTINUOUS
 62
2
  2
*M2
 10
-286.0442
 20
-58.5715
 30
0.0
 41
1.0
 42
1.0
 43
1.0
 70
1
 71
1
  0
INSERT
  8
0
  5
ABA
  6
CONTINUOUS
 62
2
  2
*M3
 10
52.6704
 20
-273.0398
 30
0.0
 41
1.0
 42
1.0
 43
1.0
 70
1
 71
1
  0
INSERT
  8
0
  5
ABC
  6
CONTINUOUS
 62
7
  2
*O4
 10
-26.7983
 20
-1.8916
 30
0.0
 41
1.0
 42
1.0
 43
1.0
 70
1
 71
1
  0
ENDSEC
  0
EOF
